  0
SECTION
  2
HEADER
  9
$ACADVER
  1
AC1027
  9
$ACADMAINTVER
 70
     8
  9
$DWGCODEPAGE
  3
ANSI_1252
  9
$LASTSAVEDBY
  1
takayaiwamoto
  9
$REQUIREDVERSIONS
160
                 0
  9
$INSBASE
 10
0.0
 20
0.0
 30
0.0
  9
$EXTMIN
 10
-4.099999999999999
 20
-4.099999999999999
 30
0.0
  9
$EXTMAX
 10
4.099999999999999
 20
4.099999999999999
 30
0.0
  9
$LIMMIN
 10
0.0
 20
0.0
  9
$LIMMAX
 10
12.0
 20
9.0
  9
$ORTHOMODE
 70
     0
  9
$REGENMODE
 70
     1
  9
$FILLMODE
 70
     1
  9
$QTEXTMODE
 70
     0
  9
$MIRRTEXT
 70
     1
  9
$LTSCALE
 40
1.0
  9
$ATTMODE
 70
     1
  9
$TEXTSIZE
 40
0.2
  9
$TRACEWID
 40
0.05
  9
$TEXTSTYLE
  7
style1
  9
$CLAYER
  8
valley_fold
  9
$CELTYPE
  6
BYLAYER
  9
$CECOLOR
 62
   256
  9
$CELTSCALE
 40
1.0
  9
$DISPSILH
 70
     0
  9
$DIMSCALE
 40
1.0
  9
$DIMASZ
 40
0.18
  9
$DIMEXO
 40
0.0625
  9
$DIMDLI
 40
0.38
  9
$DIMRND
 40
0.0
  9
$DIMDLE
 40
0.0
  9
$DIMEXE
 40
0.18
  9
$DIMTP
 40
0.0
  9
$DIMTM
 40
0.0
  9
$DIMTXT
 40
0.18
  9
$DIMCEN
 40
0.09
  9
$DIMTSZ
 40
0.0
  9
$DIMTOL
 70
     0
  9
$DIMLIM
 70
     0
  9
$DIMTIH
 70
     1
  9
$DIMTOH
 70
     1
  9
$DIMSE1
 70
     0
  9
$DIMSE2
 70
     0
  9
$DIMTAD
 70
     0
  9
$DIMZIN
 70
     0
  9
$DIMBLK
  1

  9
$DIMASO
 70
     1
  9
$DIMSHO
 70
     1
  9
$DIMPOST
  1

  9
$DIMAPOST
  1

  9
$DIMALT
 70
     0
  9
$DIMALTD
 70
     2
  9
$DIMALTF
 40
25.4
  9
$DIMLFAC
 40
1.0
  9
$DIMTOFL
 70
     0
  9
$DIMTVP
 40
0.0
  9
$DIMTIX
 70
     0
  9
$DIMSOXD
 70
     0
  9
$DIMSAH
 70
     0
  9
$DIMBLK1
  1

  9
$DIMBLK2
  1

  9
$DIMSTYLE
  2
STANDARD
  9
$DIMCLRD
 70
     0
  9
$DIMCLRE
 70
     0
  9
$DIMCLRT
 70
     0
  9
$DIMTFAC
 40
1.0
  9
$DIMGAP
 40
0.09
  9
$DIMJUST
 70
     0
  9
$DIMSD1
 70
     0
  9
$DIMSD2
 70
     0
  9
$DIMTOLJ
 70
     1
  9
$DIMTZIN
 70
     0
  9
$DIMALTZ
 70
     0
  9
$DIMALTTZ
 70
     0
  9
$DIMUPT
 70
     0
  9
$DIMDEC
 70
     4
  9
$DIMTDEC
 70
     4
  9
$DIMALTU
 70
     2
  9
$DIMALTTD
 70
     2
  9
$DIMTXSTY
  7
STANDARD
  9
$DIMAUNIT
 70
     0
  9
$DIMADEC
 70
     0
  9
$DIMALTRND
 40
0.0
  9
$DIMAZIN
 70
     0
  9
$DIMDSEP
 70
    46
  9
$DIMATFIT
 70
     3
  9
$DIMFRAC
 70
     0
  9
$DIMLDRBLK
  1

  9
$DIMLUNIT
 70
     2
  9
$DIMLWD
 70
    -2
  9
$DIMLWE
 70
    -2
  9
$DIMTMOVE
 70
     0
  9
$DIMFXL
 40
1.0
  9
$DIMFXLON
 70
     0
  9
$DIMJOGANG
 40
0.7853981633974483
  9
$DIMTFILL
 70
     0
  9
$DIMTFILLCLR
 70
     0
  9
$DIMARCSYM
 70
     0
  9
$DIMLTYPE
  6

  9
$DIMLTEX1
  6

  9
$DIMLTEX2
  6

  9
$DIMTXTDIRECTION
 70
     0
  9
$LUNITS
 70
     2
  9
$LUPREC
 70
     4
  9
$SKETCHINC
 40
0.1
  9
$FILLETRAD
 40
0.5
  9
$AUNITS
 70
     0
  9
$AUPREC
 70
     0
  9
$MENU
  1
.
  9
$ELEVATION
 40
0.0
  9
$PELEVATION
 40
0.0
  9
$THICKNESS
 40
0.0
  9
$LIMCHECK
 70
     0
  9
$CHAMFERA
 40
0.5
  9
$CHAMFERB
 40
0.5
  9
$CHAMFERC
 40
1.0
  9
$CHAMFERD
 40
0.0
  9
$SKPOLY
 70
     0
  9
$TDCREATE
 40
2457508.912711273
  9
$TDUCREATE
 40
2457509.204377940
  9
$TDUPDATE
 40
2459714.379652963
  9
$TDUUPDATE
 40
2459714.671319630
  9
$TDINDWG
 40
0.1123618287
  9
$TDUSRTIMER
 40
0.1123617245
  9
$USRTIMER
 70
     1
  9
$ANGBASE
 50
0.0
  9
$ANGDIR
 70
     0
  9
$PDMODE
 70
     0
  9
$PDSIZE
 40
0.0
  9
$PLINEWID
 40
0.0
  9
$SPLFRAME
 70
     0
  9
$SPLINETYPE
 70
     6
  9
$SPLINESEGS
 70
     8
  9
$HANDSEED
  5
C55
  9
$SURFTAB1
 70
     6
  9
$SURFTAB2
 70
     6
  9
$SURFTYPE
 70
     6
  9
$SURFU
 70
     6
  9
$SURFV
 70
     6
  9
$UCSBASE
  2

  9
$UCSNAME
  2

  9
$UCSORG
 10
0.0
 20
0.0
 30
0.0
  9
$UCSXDIR
 10
1.0
 20
0.0
 30
0.0
  9
$UCSYDIR
 10
0.0
 20
1.0
 30
0.0
  9
$UCSORTHOREF
  2

  9
$UCSORTHOVIEW
 70
     0
  9
$UCSORGTOP
 10
0.0
 20
0.0
 30
0.0
  9
$UCSORGBOTTOM
 10
0.0
 20
0.0
 30
0.0
  9
$UCSORGLEFT
 10
0.0
 20
0.0
 30
0.0
  9
$UCSORGRIGHT
 10
0.0
 20
0.0
 30
0.0
  9
$UCSORGFRONT
 10
0.0
 20
0.0
 30
0.0
  9
$UCSORGBACK
 10
0.0
 20
0.0
 30
0.0
  9
$PUCSBASE
  2

  9
$PUCSNAME
  2

  9
$PUCSORG
 10
0.0
 20
0.0
 30
0.0
  9
$PUCSXDIR
 10
1.0
 20
0.0
 30
0.0
  9
$PUCSYDIR
 10
0.0
 20
1.0
 30
0.0
  9
$PUCSORTHOREF
  2

  9
$PUCSORTHOVIEW
 70
     0
  9
$PUCSORGTOP
 10
0.0
 20
0.0
 30
0.0
  9
$PUCSORGBOTTOM
 10
0.0
 20
0.0
 30
0.0
  9
$PUCSORGLEFT
 10
0.0
 20
0.0
 30
0.0
  9
$PUCSORGRIGHT
 10
0.0
 20
0.0
 30
0.0
  9
$PUCSORGFRONT
 10
0.0
 20
0.0
 30
0.0
  9
$PUCSORGBACK
 10
0.0
 20
0.0
 30
0.0
  9
$USERI1
 70
     0
  9
$USERI2
 70
     0
  9
$USERI3
 70
     0
  9
$USERI4
 70
     0
  9
$USERI5
 70
     0
  9
$USERR1
 40
0.0
  9
$USERR2
 40
0.0
  9
$USERR3
 40
0.0
  9
$USERR4
 40
0.0
  9
$USERR5
 40
0.0
  9
$WORLDVIEW
 70
     1
  9
$SHADEDGE
 70
     3
  9
$SHADEDIF
 70
    70
  9
$TILEMODE
 70
     1
  9
$MAXACTVP
 70
    64
  9
$PINSBASE
 10
0.0
 20
0.0
 30
0.0
  9
$PLIMCHECK
 70
     0
  9
$PEXTMIN
 10
1.000000000000000E+20
 20
1.000000000000000E+20
 30
1.000000000000000E+20
  9
$PEXTMAX
 10
-1.000000000000000E+20
 20
-1.000000000000000E+20
 30
-1.000000000000000E+20
  9
$PLIMMIN
 10
0.0
 20
0.0
  9
$PLIMMAX
 10
12.0
 20
9.0
  9
$UNITMODE
 70
     0
  9
$VISRETAIN
 70
     1
  9
$PLINEGEN
 70
     0
  9
$PSLTSCALE
 70
     1
  9
$TREEDEPTH
 70
  3020
  9
$CMLSTYLE
  2
STANDARD
  9
$CMLJUST
 70
     0
  9
$CMLSCALE
 40
1.0
  9
$PROXYGRAPHICS
 70
     1
  9
$MEASUREMENT
 70
     0
  9
$CELWEIGHT
370
    -1
  9
$ENDCAPS
280
     0
  9
$JOINSTYLE
280
     0
  9
$LWDISPLAY
290
     1
  9
$INSUNITS
 70
     0
  9
$HYPERLINKBASE
  1

  9
$STYLESHEET
  1

  9
$XEDIT
290
     1
  9
$CEPSNTYPE
380
     0
  9
$PSTYLEMODE
290
     1
  9
$FINGERPRINTGUID
  2
{B4324C46-A7BD-4D5E-A03D-E12DFB3F5FDC}
  9
$VERSIONGUID
  2
{BBD414F1-5F3F-4BF2-9583-BCE0CE41DECC}
  9
$EXTNAMES
290
     1
  9
$PSVPSCALE
 40
0.0
  9
$OLESTARTUP
290
     0
  9
$SORTENTS
280
   127
  9
$INDEXCTL
280
     0
  9
$HIDETEXT
280
     0
  9
$XCLIPFRAME
280
     2
  9
$HALOGAP
280
     0
  9
$OBSCOLOR
 70
   257
  9
$OBSLTYPE
280
     0
  9
$INTERSECTIONDISPLAY
280
     0
  9
$INTERSECTIONCOLOR
 70
   257
  9
$DIMASSOC
280
     1
  9
$PROJECTNAME
  1

  9
$CAMERADISPLAY
290
     0
  9
$LENSLENGTH
 40
50.0
  9
$CAMERAHEIGHT
 40
0.0
  9
$STEPSPERSEC
 40
2.0
  9
$STEPSIZE
 40
6.0
  9
$3DDWFPREC
 40
2.0
  9
$PSOLWIDTH
 40
0.25
  9
$PSOLHEIGHT
 40
4.0
  9
$LOFTANG1
 40
1.570796326794896
  9
$LOFTANG2
 40
1.570796326794896
  9
$LOFTMAG1
 40
0.0
  9
$LOFTMAG2
 40
0.0
  9
$LOFTPARAM
 70
     7
  9
$LOFTNORMALS
280
     1
  9
$LATITUDE
 40
37.795
  9
$LONGITUDE
 40
-122.394
  9
$NORTHDIRECTION
 40
0.0
  9
$TIMEZONE
 70
 -8000
  9
$LIGHTGLYPHDISPLAY
280
     1
  9
$TILEMODELIGHTSYNCH
280
     1
  9
$CMATERIAL
347
74E
  9
$SOLIDHIST
280
     0
  9
$SHOWHIST
280
     1
  9
$DWFFRAME
280
     2
  9
$DGNFRAME
280
     0
  9
$REALWORLDSCALE
290
     1
  9
$INTERFERECOLOR
 62
     1
  9
$INTERFEREOBJVS
345
33
  9
$INTERFEREVPVS
346
766
  9
$CSHADOW
280
     0
  9
$SHADOWPLANELOCATION
 40
0.0
  0
ENDSEC
  0
SECTION
  2
CLASSES
  0
CLASS
  1
ACDBDICTIONARYWDFLT
  2
AcDbDictionaryWithDefault
  3
ObjectDBX Classes
 90
        0
 91
        1
280
     0
281
     0
  0
CLASS
  1
VISUALSTYLE
  2
AcDbVisualStyle
  3
ObjectDBX Classes
 90
     4095
 91
       26
280
     0
281
     0
  0
CLASS
  1
MATERIAL
  2
AcDbMaterial
  3
ObjectDBX Classes
 90
     1153
 91
        3
280
     0
281
     0
  0
CLASS
  1
TABLESTYLE
  2
AcDbTableStyle
  3
ObjectDBX Classes
 90
     4095
 91
        1
280
     0
281
     0
  0
CLASS
  1
SCALE
  2
AcDbScale
  3
ObjectDBX Classes
 90
     1153
 91
       17
280
     0
281
     0
  0
CLASS
  1
MLEADERSTYLE
  2
AcDbMLeaderStyle
  3
ACDB_MLEADERSTYLE_CLASS
 90
     4095
 91
        1
280
     0
281
     0
  0
CLASS
  1
ACDBSECTIONVIEWSTYLE
  2
AcDbSectionViewStyle
  3
ObjectDBX Classes
 90
     1025
 91
        1
280
     0
281
     0
  0
CLASS
  1
ACDBDETAILVIEWSTYLE
  2
AcDbDetailViewStyle
  3
ObjectDBX Classes
 90
     1025
 91
        1
280
     0
281
     0
  0
CLASS
  1
DICTIONARYVAR
  2
AcDbDictionaryVar
  3
ObjectDBX Classes
 90
        0
 91
        9
280
     0
281
     0
  0
CLASS
  1
SORTENTSTABLE
  2
AcDbSortentsTable
  3
ObjectDBX Classes
 90
        0
 91
        1
280
     0
281
     0
  0
CLASS
  1
CELLSTYLEMAP
  2
AcDbCellStyleMap
  3
ObjectDBX Classes
 90
     1152
 91
        1
280
     0
281
     0
  0
ENDSEC
  0
SECTION
  2
TABLES
  0
TABLE
  2
VPORT
  5
8
330
0
100
AcDbSymbolTable
 70
     1
  0
VPORT
  5
29
330
8
100
AcDbSymbolTableRecord
100
AcDbViewportTableRecord
  2
*ACTIVE
 70
     0
 10
0.0
 20
0.0
 11
1.0
 21
1.0
 12
-105.0008259828644
 22
148.4999796178229
 13
0.0
 23
0.0
 14
0.5
 24
0.5
 15
0.5
 25
0.5
 16
0.0
 26
0.0
 36
1.0
 17
105.0008259828644
 27
-148.4999796178229
 37
0.0
 40
8.199999999999988
 41
1.0
 42
50.0
 43
0.0
 44
0.0
 50
0.0
 51
0.0
 71
     0
 72
   100
 73
     1
 74
     3
 75
     0
 76
     0
 77
     0
 78
     0
281
     0
 65
     1
110
0.0
120
0.0
130
0.0
111
1.0
121
0.0
131
0.0
112
0.0
122
1.0
132
0.0
 79
     0
146
0.0
348
2F
 60
     3
 61
     5
292
     1
282
     1
141
0.0
142
0.0
 63
   250
421
  3355443
1001
ACAD_NAV_VCDISPLAY
1070
     3
  0
ENDTAB
  0
TABLE
  2
LTYPE
  5
5
330
0
100
AcDbSymbolTable
 70
    90
  0
LTYPE
  5
14
330
5
100
AcDbSymbolTableRecord
100
AcDbLinetypeTableRecord
  2
BYBLOCK
 70
     0
  3

 72
    65
 73
     0
 40
0.0
  0
LTYPE
  5
15
330
5
100
AcDbSymbolTableRecord
100
AcDbLinetypeTableRecord
  2
BYLAYER
 70
     0
  3

 72
    65
 73
     0
 40
0.0
  0
LTYPE
  5
16
330
5
100
AcDbSymbolTableRecord
100
AcDbLinetypeTableRecord
  2
CONTINUOUS
 70
     0
  3
Solid line
 72
    65
 73
     0
 40
0.0
  0
LTYPE
  5
105
330
5
100
AcDbSymbolTableRecord
100
AcDbLinetypeTableRecord
  2
AI-LINETYPE-1
 70
     0
  3
Adobe Illustrator Linetype No. 1
 72
    65
 73
     2
 40
2.822222221516666
 49
1.411111110758332
 74
     0
 49
-1.411111110758332
 74
     0
  0
LTYPE
  5
10E
330
5
100
AcDbSymbolTableRecord
100
AcDbLinetypeTableRecord
  2
AI-LINETYPE-2
 70
     0
  3
Adobe Illustrator Linetype No. 2
 72
    65
 73
     2
 40
2.822222221516666
 49
1.411111110758332
 74
     0
 49
-1.411111110758332
 74
     0
  0
LTYPE
  5
117
330
5
100
AcDbSymbolTableRecord
100
AcDbLinetypeTableRecord
  2
AI-LINETYPE-3
 70
     0
  3
Adobe Illustrator Linetype No. 3
 72
    65
 73
     2
 40
2.822222221516666
 49
1.411111110758332
 74
     0
 49
-1.411111110758332
 74
     0
  0
LTYPE
  5
120
330
5
100
AcDbSymbolTableRecord
100
AcDbLinetypeTableRecord
  2
AI-LINETYPE-4
 70
     0
  3
Adobe Illustrator Linetype No. 4
 72
    65
 73
     2
 40
2.822222221516666
 49
1.411111110758332
 74
     0
 49
-1.411111110758332
 74
     0
  0
LTYPE
  5
129
330
5
100
AcDbSymbolTableRecord
100
AcDbLinetypeTableRecord
  2
AI-LINETYPE-5
 70
     0
  3
Adobe Illustrator Linetype No. 5
 72
    65
 73
     2
 40
2.822222221516666
 49
1.411111110758332
 74
     0
 49
-1.411111110758332
 74
     0
  0
LTYPE
  5
132
330
5
100
AcDbSymbolTableRecord
100
AcDbLinetypeTableRecord
  2
AI-LINETYPE-6
 70
     0
  3
Adobe Illustrator Linetype No. 6
 72
    65
 73
     2
 40
2.822222221516666
 49
1.411111110758332
 74
     0
 49
-1.411111110758332
 74
     0
  0
LTYPE
  5
13B
330
5
100
AcDbSymbolTableRecord
100
AcDbLinetypeTableRecord
  2
AI-LINETYPE-7
 70
     0
  3
Adobe Illustrator Linetype No. 7
 72
    65
 73
     2
 40
2.822222221516666
 49
1.411111110758332
 74
     0
 49
-1.411111110758332
 74
     0
  0
LTYPE
  5
144
330
5
100
AcDbSymbolTableRecord
100
AcDbLinetypeTableRecord
  2
AI-LINETYPE-8
 70
     0
  3
Adobe Illustrator Linetype No. 8
 72
    65
 73
     2
 40
2.822222221516666
 49
1.411111110758332
 74
     0
 49
-1.411111110758332
 74
     0
  0
LTYPE
  5
14D
330
5
100
AcDbSymbolTableRecord
100
AcDbLinetypeTableRecord
  2
AI-LINETYPE-9
 70
     0
  3
Adobe Illustrator Linetype No. 9
 72
    65
 73
     2
 40
2.822222221516666
 49
1.411111110758332
 74
     0
 49
-1.411111110758332
 74
     0
  0
LTYPE
  5
156
330
5
100
AcDbSymbolTableRecord
100
AcDbLinetypeTableRecord
  2
AI-LINETYPE-10
 70
     0
  3
Adobe Illustrator Linetype No. 10
 72
    65
 73
     2
 40
2.822222221516666
 49
1.411111110758332
 74
     0
 49
-1.411111110758332
 74
     0
  0
LTYPE
  5
15F
330
5
100
AcDbSymbolTableRecord
100
AcDbLinetypeTableRecord
  2
AI-LINETYPE-11
 70
     0
  3
Adobe Illustrator Linetype No. 11
 72
    65
 73
     2
 40
2.822222221516666
 49
1.411111110758332
 74
     0
 49
-1.411111110758332
 74
     0
  0
LTYPE
  5
168
330
5
100
AcDbSymbolTableRecord
100
AcDbLinetypeTableRecord
  2
AI-LINETYPE-12
 70
     0
  3
Adobe Illustrator Linetype No. 12
 72
    65
 73
     2
 40
2.822222221516666
 49
1.411111110758332
 74
     0
 49
-1.411111110758332
 74
     0
  0
LTYPE
  5
171
330
5
100
AcDbSymbolTableRecord
100
AcDbLinetypeTableRecord
  2
AI-LINETYPE-13
 70
     0
  3
Adobe Illustrator Linetype No. 13
 72
    65
 73
     2
 40
2.822222221516666
 49
1.411111110758332
 74
     0
 49
-1.411111110758332
 74
     0
  0
LTYPE
  5
17A
330
5
100
AcDbSymbolTableRecord
100
AcDbLinetypeTableRecord
  2
AI-LINETYPE-14
 70
     0
  3
Adobe Illustrator Linetype No. 14
 72
    65
 73
     2
 40
2.822222221516666
 49
1.411111110758332
 74
     0
 49
-1.411111110758332
 74
     0
  0
LTYPE
  5
183
330
5
100
AcDbSymbolTableRecord
100
AcDbLinetypeTableRecord
  2
AI-LINETYPE-15
 70
     0
  3
Adobe Illustrator Linetype No. 15
 72
    65
 73
     2
 40
2.822222221516666
 49
1.411111110758332
 74
     0
 49
-1.411111110758332
 74
     0
  0
LTYPE
  5
18C
330
5
100
AcDbSymbolTableRecord
100
AcDbLinetypeTableRecord
  2
AI-LINETYPE-16
 70
     0
  3
Adobe Illustrator Linetype No. 16
 72
    65
 73
     2
 40
2.822222221516666
 49
1.411111110758332
 74
     0
 49
-1.411111110758332
 74
     0
  0
LTYPE
  5
195
330
5
100
AcDbSymbolTableRecord
100
AcDbLinetypeTableRecord
  2
AI-LINETYPE-17
 70
     0
  3
Adobe Illustrator Linetype No. 17
 72
    65
 73
     2
 40
2.822222221516666
 49
1.411111110758332
 74
     0
 49
-1.411111110758332
 74
     0
  0
LTYPE
  5
19E
330
5
100
AcDbSymbolTableRecord
100
AcDbLinetypeTableRecord
  2
AI-LINETYPE-18
 70
     0
  3
Adobe Illustrator Linetype No. 18
 72
    65
 73
     2
 40
2.822222221516666
 49
1.411111110758332
 74
     0
 49
-1.411111110758332
 74
     0
  0
LTYPE
  5
1A7
330
5
100
AcDbSymbolTableRecord
100
AcDbLinetypeTableRecord
  2
AI-LINETYPE-19
 70
     0
  3
Adobe Illustrator Linetype No. 19
 72
    65
 73
     2
 40
2.822222221516666
 49
1.411111110758332
 74
     0
 49
-1.411111110758332
 74
     0
  0
LTYPE
  5
1B0
330
5
100
AcDbSymbolTableRecord
100
AcDbLinetypeTableRecord
  2
AI-LINETYPE-20
 70
     0
  3
Adobe Illustrator Linetype No. 20
 72
    65
 73
     2
 40
2.822222221516666
 49
1.411111110758332
 74
     0
 49
-1.411111110758332
 74
     0
  0
LTYPE
  5
1B9
330
5
100
AcDbSymbolTableRecord
100
AcDbLinetypeTableRecord
  2
AI-LINETYPE-21
 70
     0
  3
Adobe Illustrator Linetype No. 21
 72
    65
 73
     2
 40
2.822222221516666
 49
1.411111110758332
 74
     0
 49
-1.411111110758332
 74
     0
  0
LTYPE
  5
1C2
330
5
100
AcDbSymbolTableRecord
100
AcDbLinetypeTableRecord
  2
AI-LINETYPE-22
 70
     0
  3
Adobe Illustrator Linetype No. 22
 72
    65
 73
     2
 40
2.822222221516666
 49
1.411111110758332
 74
     0
 49
-1.411111110758332
 74
     0
  0
LTYPE
  5
1CB
330
5
100
AcDbSymbolTableRecord
100
AcDbLinetypeTableRecord
  2
AI-LINETYPE-23
 70
     0
  3
Adobe Illustrator Linetype No. 23
 72
    65
 73
     2
 40
2.822222221516666
 49
1.411111110758332
 74
     0
 49
-1.411111110758332
 74
     0
  0
LTYPE
  5
1D4
330
5
100
AcDbSymbolTableRecord
100
AcDbLinetypeTableRecord
  2
AI-LINETYPE-24
 70
     0
  3
Adobe Illustrator Linetype No. 24
 72
    65
 73
     2
 40
2.822222221516666
 49
1.411111110758332
 74
     0
 49
-1.411111110758332
 74
     0
  0
LTYPE
  5
1DD
330
5
100
AcDbSymbolTableRecord
100
AcDbLinetypeTableRecord
  2
AI-LINETYPE-25
 70
     0
  3
Adobe Illustrator Linetype No. 25
 72
    65
 73
     2
 40
2.822222221516666
 49
1.411111110758332
 74
     0
 49
-1.411111110758332
 74
     0
  0
LTYPE
  5
1E6
330
5
100
AcDbSymbolTableRecord
100
AcDbLinetypeTableRecord
  2
AI-LINETYPE-26
 70
     0
  3
Adobe Illustrator Linetype No. 26
 72
    65
 73
     2
 40
2.822222221516666
 49
1.411111110758332
 74
     0
 49
-1.411111110758332
 74
     0
  0
LTYPE
  5
1EF
330
5
100
AcDbSymbolTableRecord
100
AcDbLinetypeTableRecord
  2
AI-LINETYPE-27
 70
     0
  3
Adobe Illustrator Linetype No. 27
 72
    65
 73
     2
 40
2.822222221516666
 49
1.411111110758332
 74
     0
 49
-1.411111110758332
 74
     0
  0
LTYPE
  5
1F8
330
5
100
AcDbSymbolTableRecord
100
AcDbLinetypeTableRecord
  2
AI-LINETYPE-28
 70
     0
  3
Adobe Illustrator Linetype No. 28
 72
    65
 73
     2
 40
2.822222221516666
 49
1.411111110758332
 74
     0
 49
-1.411111110758332
 74
     0
  0
LTYPE
  5
201
330
5
100
AcDbSymbolTableRecord
100
AcDbLinetypeTableRecord
  2
AI-LINETYPE-29
 70
     0
  3
Adobe Illustrator Linetype No. 29
 72
    65
 73
     2
 40
2.822222221516666
 49
1.411111110758332
 74
     0
 49
-1.411111110758332
 74
     0
  0
LTYPE
  5
20A
330
5
100
AcDbSymbolTableRecord
100
AcDbLinetypeTableRecord
  2
AI-LINETYPE-30
 70
     0
  3
Adobe Illustrator Linetype No. 30
 72
    65
 73
     2
 40
2.822222221516666
 49
1.411111110758332
 74
     0
 49
-1.411111110758332
 74
     0
  0
LTYPE
  5
213
330
5
100
AcDbSymbolTableRecord
100
AcDbLinetypeTableRecord
  2
AI-LINETYPE-31
 70
     0
  3
Adobe Illustrator Linetype No. 31
 72
    65
 73
     2
 40
2.822222221516666
 49
1.411111110758332
 74
     0
 49
-1.411111110758332
 74
     0
  0
LTYPE
  5
21C
330
5
100
AcDbSymbolTableRecord
100
AcDbLinetypeTableRecord
  2
AI-LINETYPE-32
 70
     0
  3
Adobe Illustrator Linetype No. 32
 72
    65
 73
     2
 40
2.822222221516666
 49
1.411111110758332
 74
     0
 49
-1.411111110758332
 74
     0
  0
LTYPE
  5
225
330
5
100
AcDbSymbolTableRecord
100
AcDbLinetypeTableRecord
  2
AI-LINETYPE-33
 70
     0
  3
Adobe Illustrator Linetype No. 33
 72
    65
 73
     2
 40
2.822222221516666
 49
1.411111110758332
 74
     0
 49
-1.411111110758332
 74
     0
  0
LTYPE
  5
22E
330
5
100
AcDbSymbolTableRecord
100
AcDbLinetypeTableRecord
  2
AI-LINETYPE-34
 70
     0
  3
Adobe Illustrator Linetype No. 34
 72
    65
 73
     2
 40
2.822222221516666
 49
1.411111110758332
 74
     0
 49
-1.411111110758332
 74
     0
  0
LTYPE
  5
237
330
5
100
AcDbSymbolTableRecord
100
AcDbLinetypeTableRecord
  2
AI-LINETYPE-35
 70
     0
  3
Adobe Illustrator Linetype No. 35
 72
    65
 73
     2
 40
2.822222221516666
 49
1.411111110758332
 74
     0
 49
-1.411111110758332
 74
     0
  0
LTYPE
  5
240
330
5
100
AcDbSymbolTableRecord
100
AcDbLinetypeTableRecord
  2
AI-LINETYPE-36
 70
     0
  3
Adobe Illustrator Linetype No. 36
 72
    65
 73
     2
 40
2.822222221516666
 49
1.411111110758332
 74
     0
 49
-1.411111110758332
 74
     0
  0
LTYPE
  5
249
330
5
100
AcDbSymbolTableRecord
100
AcDbLinetypeTableRecord
  2
AI-LINETYPE-37
 70
     0
  3
Adobe Illustrator Linetype No. 37
 72
    65
 73
     2
 40
2.822222221516666
 49
1.411111110758332
 74
     0
 49
-1.411111110758332
 74
     0
  0
LTYPE
  5
252
330
5
100
AcDbSymbolTableRecord
100
AcDbLinetypeTableRecord
  2
AI-LINETYPE-38
 70
     0
  3
Adobe Illustrator Linetype No. 38
 72
    65
 73
     2
 40
2.822222221516666
 49
1.411111110758332
 74
     0
 49
-1.411111110758332
 74
     0
  0
LTYPE
  5
25B
330
5
100
AcDbSymbolTableRecord
100
AcDbLinetypeTableRecord
  2
AI-LINETYPE-39
 70
     0
  3
Adobe Illustrator Linetype No. 39
 72
    65
 73
     2
 40
2.822222221516666
 49
1.411111110758332
 74
     0
 49
-1.411111110758332
 74
     0
  0
LTYPE
  5
264
330
5
100
AcDbSymbolTableRecord
100
AcDbLinetypeTableRecord
  2
AI-LINETYPE-40
 70
     0
  3
Adobe Illustrator Linetype No. 40
 72
    65
 73
     2
 40
2.822222221516666
 49
1.411111110758332
 74
     0
 49
-1.411111110758332
 74
     0
  0
LTYPE
  5
26D
330
5
100
AcDbSymbolTableRecord
100
AcDbLinetypeTableRecord
  2
AI-LINETYPE-41
 70
     0
  3
Adobe Illustrator Linetype No. 41
 72
    65
 73
     2
 40
2.822222221516666
 49
1.411111110758332
 74
     0
 49
-1.411111110758332
 74
     0
  0
LTYPE
  5
276
330
5
100
AcDbSymbolTableRecord
100
AcDbLinetypeTableRecord
  2
AI-LINETYPE-42
 70
     0
  3
Adobe Illustrator Linetype No. 42
 72
    65
 73
     2
 40
2.822222221516666
 49
1.411111110758332
 74
     0
 49
-1.411111110758332
 74
     0
  0
LTYPE
  5
27F
330
5
100
AcDbSymbolTableRecord
100
AcDbLinetypeTableRecord
  2
AI-LINETYPE-43
 70
     0
  3
Adobe Illustrator Linetype No. 43
 72
    65
 73
     2
 40
2.822222221516666
 49
1.411111110758332
 74
     0
 49
-1.411111110758332
 74
     0
  0
LTYPE
  5
288
330
5
100
AcDbSymbolTableRecord
100
AcDbLinetypeTableRecord
  2
AI-LINETYPE-44
 70
     0
  3
Adobe Illustrator Linetype No. 44
 72
    65
 73
     2
 40
2.822222221516666
 49
1.411111110758332
 74
     0
 49
-1.411111110758332
 74
     0
  0
LTYPE
  5
291
330
5
100
AcDbSymbolTableRecord
100
AcDbLinetypeTableRecord
  2
AI-LINETYPE-45
 70
     0
  3
Adobe Illustrator Linetype No. 45
 72
    65
 73
     2
 40
2.822222221516666
 49
1.411111110758332
 74
     0
 49
-1.411111110758332
 74
     0
  0
LTYPE
  5
29A
330
5
100
AcDbSymbolTableRecord
100
AcDbLinetypeTableRecord
  2
AI-LINETYPE-46
 70
     0
  3
Adobe Illustrator Linetype No. 46
 72
    65
 73
     2
 40
2.822222221516666
 49
1.411111110758332
 74
     0
 49
-1.411111110758332
 74
     0
  0
LTYPE
  5
2A3
330
5
100
AcDbSymbolTableRecord
100
AcDbLinetypeTableRecord
  2
AI-LINETYPE-47
 70
     0
  3
Adobe Illustrator Linetype No. 47
 72
    65
 73
     2
 40
2.822222221516666
 49
1.411111110758332
 74
     0
 49
-1.411111110758332
 74
     0
  0
LTYPE
  5
2AC
330
5
100
AcDbSymbolTableRecord
100
AcDbLinetypeTableRecord
  2
AI-LINETYPE-48
 70
     0
  3
Adobe Illustrator Linetype No. 48
 72
    65
 73
     2
 40
2.822222221516666
 49
1.411111110758332
 74
     0
 49
-1.411111110758332
 74
     0
  0
LTYPE
  5
2B5
330
5
100
AcDbSymbolTableRecord
100
AcDbLinetypeTableRecord
  2
AI-LINETYPE-49
 70
     0
  3
Adobe Illustrator Linetype No. 49
 72
    65
 73
     2
 40
2.822222221516666
 49
1.411111110758332
 74
     0
 49
-1.411111110758332
 74
     0
  0
LTYPE
  5
2BE
330
5
100
AcDbSymbolTableRecord
100
AcDbLinetypeTableRecord
  2
AI-LINETYPE-50
 70
     0
  3
Adobe Illustrator Linetype No. 50
 72
    65
 73
     2
 40
2.822222221516666
 49
1.411111110758332
 74
     0
 49
-1.411111110758332
 74
     0
  0
LTYPE
  5
2C7
330
5
100
AcDbSymbolTableRecord
100
AcDbLinetypeTableRecord
  2
AI-LINETYPE-51
 70
     0
  3
Adobe Illustrator Linetype No. 51
 72
    65
 73
     2
 40
2.822222221516666
 49
1.411111110758332
 74
     0
 49
-1.411111110758332
 74
     0
  0
LTYPE
  5
2D0
330
5
100
AcDbSymbolTableRecord
100
AcDbLinetypeTableRecord
  2
AI-LINETYPE-52
 70
     0
  3
Adobe Illustrator Linetype No. 52
 72
    65
 73
     2
 40
2.822222221516666
 49
1.411111110758332
 74
     0
 49
-1.411111110758332
 74
     0
  0
LTYPE
  5
2D9
330
5
100
AcDbSymbolTableRecord
100
AcDbLinetypeTableRecord
  2
AI-LINETYPE-53
 70
     0
  3
Adobe Illustrator Linetype No. 53
 72
    65
 73
     2
 40
2.822222221516666
 49
1.411111110758332
 74
     0
 49
-1.411111110758332
 74
     0
  0
LTYPE
  5
2E2
330
5
100
AcDbSymbolTableRecord
100
AcDbLinetypeTableRecord
  2
AI-LINETYPE-54
 70
     0
  3
Adobe Illustrator Linetype No. 54
 72
    65
 73
     2
 40
2.822222221516666
 49
1.411111110758332
 74
     0
 49
-1.411111110758332
 74
     0
  0
LTYPE
  5
2EB
330
5
100
AcDbSymbolTableRecord
100
AcDbLinetypeTableRecord
  2
AI-LINETYPE-55
 70
     0
  3
Adobe Illustrator Linetype No. 55
 72
    65
 73
     2
 40
2.822222221516666
 49
1.411111110758332
 74
     0
 49
-1.411111110758332
 74
     0
  0
LTYPE
  5
2F4
330
5
100
AcDbSymbolTableRecord
100
AcDbLinetypeTableRecord
  2
AI-LINETYPE-56
 70
     0
  3
Adobe Illustrator Linetype No. 56
 72
    65
 73
     2
 40
2.822222221516666
 49
1.411111110758332
 74
     0
 49
-1.411111110758332
 74
     0
  0
LTYPE
  5
2FD
330
5
100
AcDbSymbolTableRecord
100
AcDbLinetypeTableRecord
  2
AI-LINETYPE-57
 70
     0
  3
Adobe Illustrator Linetype No. 57
 72
    65
 73
     2
 40
2.822222221516666
 49
1.411111110758332
 74
     0
 49
-1.411111110758332
 74
     0
  0
LTYPE
  5
306
330
5
100
AcDbSymbolTableRecord
100
AcDbLinetypeTableRecord
  2
AI-LINETYPE-58
 70
     0
  3
Adobe Illustrator Linetype No. 58
 72
    65
 73
     2
 40
2.822222221516666
 49
1.411111110758332
 74
     0
 49
-1.411111110758332
 74
     0
  0
LTYPE
  5
30F
330
5
100
AcDbSymbolTableRecord
100
AcDbLinetypeTableRecord
  2
AI-LINETYPE-59
 70
     0
  3
Adobe Illustrator Linetype No. 59
 72
    65
 73
     2
 40
2.822222221516666
 49
1.411111110758332
 74
     0
 49
-1.411111110758332
 74
     0
  0
LTYPE
  5
318
330
5
100
AcDbSymbolTableRecord
100
AcDbLinetypeTableRecord
  2
AI-LINETYPE-60
 70
     0
  3
Adobe Illustrator Linetype No. 60
 72
    65
 73
     2
 40
2.822222221516666
 49
1.411111110758332
 74
     0
 49
-1.411111110758332
 74
     0
  0
LTYPE
  5
321
330
5
100
AcDbSymbolTableRecord
100
AcDbLinetypeTableRecord
  2
AI-LINETYPE-61
 70
     0
  3
Adobe Illustrator Linetype No. 61
 72
    65
 73
     2
 40
2.822222221516666
 49
1.411111110758332
 74
     0
 49
-1.411111110758332
 74
     0
  0
LTYPE
  5
32A
330
5
100
AcDbSymbolTableRecord
100
AcDbLinetypeTableRecord
  2
AI-LINETYPE-62
 70
     0
  3
Adobe Illustrator Linetype No. 62
 72
    65
 73
     2
 40
2.822222221516666
 49
1.411111110758332
 74
     0
 49
-1.411111110758332
 74
     0
  0
LTYPE
  5
333
330
5
100
AcDbSymbolTableRecord
100
AcDbLinetypeTableRecord
  2
AI-LINETYPE-63
 70
     0
  3
Adobe Illustrator Linetype No. 63
 72
    65
 73
     2
 40
2.822222221516666
 49
1.411111110758332
 74
     0
 49
-1.411111110758332
 74
     0
  0
LTYPE
  5
33C
330
5
100
AcDbSymbolTableRecord
100
AcDbLinetypeTableRecord
  2
AI-LINETYPE-64
 70
     0
  3
Adobe Illustrator Linetype No. 64
 72
    65
 73
     2
 40
2.822222221516666
 49
1.411111110758332
 74
     0
 49
-1.411111110758332
 74
     0
  0
LTYPE
  5
345
330
5
100
AcDbSymbolTableRecord
100
AcDbLinetypeTableRecord
  2
AI-LINETYPE-65
 70
     0
  3
Adobe Illustrator Linetype No. 65
 72
    65
 73
     2
 40
2.822222221516666
 49
1.411111110758332
 74
     0
 49
-1.411111110758332
 74
     0
  0
LTYPE
  5
34E
330
5
100
AcDbSymbolTableRecord
100
AcDbLinetypeTableRecord
  2
AI-LINETYPE-66
 70
     0
  3
Adobe Illustrator Linetype No. 66
 72
    65
 73
     2
 40
2.822222221516666
 49
1.411111110758332
 74
     0
 49
-1.411111110758332
 74
     0
  0
LTYPE
  5
357
330
5
100
AcDbSymbolTableRecord
100
AcDbLinetypeTableRecord
  2
AI-LINETYPE-67
 70
     0
  3
Adobe Illustrator Linetype No. 67
 72
    65
 73
     2
 40
2.822222221516666
 49
1.411111110758332
 74
     0
 49
-1.411111110758332
 74
     0
  0
LTYPE
  5
360
330
5
100
AcDbSymbolTableRecord
100
AcDbLinetypeTableRecord
  2
AI-LINETYPE-68
 70
     0
  3
Adobe Illustrator Linetype No. 68
 72
    65
 73
     2
 40
2.822222221516666
 49
1.411111110758332
 74
     0
 49
-1.411111110758332
 74
     0
  0
LTYPE
  5
369
330
5
100
AcDbSymbolTableRecord
100
AcDbLinetypeTableRecord
  2
AI-LINETYPE-69
 70
     0
  3
Adobe Illustrator Linetype No. 69
 72
    65
 73
     2
 40
2.822222221516666
 49
1.411111110758332
 74
     0
 49
-1.411111110758332
 74
     0
  0
LTYPE
  5
372
330
5
100
AcDbSymbolTableRecord
100
AcDbLinetypeTableRecord
  2
AI-LINETYPE-70
 70
     0
  3
Adobe Illustrator Linetype No. 70
 72
    65
 73
     2
 40
2.822222221516666
 49
1.411111110758332
 74
     0
 49
-1.411111110758332
 74
     0
  0
LTYPE
  5
37B
330
5
100
AcDbSymbolTableRecord
100
AcDbLinetypeTableRecord
  2
AI-LINETYPE-71
 70
     0
  3
Adobe Illustrator Linetype No. 71
 72
    65
 73
     2
 40
2.822222221516666
 49
1.411111110758332
 74
     0
 49
-1.411111110758332
 74
     0
  0
LTYPE
  5
384
330
5
100
AcDbSymbolTableRecord
100
AcDbLinetypeTableRecord
  2
AI-LINETYPE-72
 70
     0
  3
Adobe Illustrator Linetype No. 72
 72
    65
 73
     2
 40
2.822222221516666
 49
1.411111110758332
 74
     0
 49
-1.411111110758332
 74
     0
  0
LTYPE
  5
38D
330
5
100
AcDbSymbolTableRecord
100
AcDbLinetypeTableRecord
  2
AI-LINETYPE-73
 70
     0
  3
Adobe Illustrator Linetype No. 73
 72
    65
 73
     2
 40
2.822222221516666
 49
1.411111110758332
 74
     0
 49
-1.411111110758332
 74
     0
  0
LTYPE
  5
396
330
5
100
AcDbSymbolTableRecord
100
AcDbLinetypeTableRecord
  2
AI-LINETYPE-74
 70
     0
  3
Adobe Illustrator Linetype No. 74
 72
    65
 73
     2
 40
2.822222221516666
 49
1.411111110758332
 74
     0
 49
-1.411111110758332
 74
     0
  0
LTYPE
  5
39F
330
5
100
AcDbSymbolTableRecord
100
AcDbLinetypeTableRecord
  2
AI-LINETYPE-75
 70
     0
  3
Adobe Illustrator Linetype No. 75
 72
    65
 73
     2
 40
2.822222221516666
 49
1.411111110758332
 74
     0
 49
-1.411111110758332
 74
     0
  0
LTYPE
  5
3A8
330
5
100
AcDbSymbolTableRecord
100
AcDbLinetypeTableRecord
  2
AI-LINETYPE-76
 70
     0
  3
Adobe Illustrator Linetype No. 76
 72
    65
 73
     2
 40
2.822222221516666
 49
1.411111110758332
 74
     0
 49
-1.411111110758332
 74
     0
  0
LTYPE
  5
3B1
330
5
100
AcDbSymbolTableRecord
100
AcDbLinetypeTableRecord
  2
AI-LINETYPE-77
 70
     0
  3
Adobe Illustrator Linetype No. 77
 72
    65
 73
     2
 40
2.822222221516666
 49
1.411111110758332
 74
     0
 49
-1.411111110758332
 74
     0
  0
LTYPE
  5
3BA
330
5
100
AcDbSymbolTableRecord
100
AcDbLinetypeTableRecord
  2
AI-LINETYPE-78
 70
     0
  3
Adobe Illustrator Linetype No. 78
 72
    65
 73
     2
 40
2.822222221516666
 49
1.411111110758332
 74
     0
 49
-1.411111110758332
 74
     0
  0
LTYPE
  5
3C3
330
5
100
AcDbSymbolTableRecord
100
AcDbLinetypeTableRecord
  2
AI-LINETYPE-79
 70
     0
  3
Adobe Illustrator Linetype No. 79
 72
    65
 73
     2
 40
2.822222221516666
 49
1.411111110758332
 74
     0
 49
-1.411111110758332
 74
     0
  0
LTYPE
  5
3CC
330
5
100
AcDbSymbolTableRecord
100
AcDbLinetypeTableRecord
  2
AI-LINETYPE-80
 70
     0
  3
Adobe Illustrator Linetype No. 80
 72
    65
 73
     2
 40
2.822222221516666
 49
1.411111110758332
 74
     0
 49
-1.411111110758332
 74
     0
  0
LTYPE
  5
3D5
330
5
100
AcDbSymbolTableRecord
100
AcDbLinetypeTableRecord
  2
AI-LINETYPE-81
 70
     0
  3
Adobe Illustrator Linetype No. 81
 72
    65
 73
     2
 40
2.822222221516666
 49
1.411111110758332
 74
     0
 49
-1.411111110758332
 74
     0
  0
LTYPE
  5
3DE
330
5
100
AcDbSymbolTableRecord
100
AcDbLinetypeTableRecord
  2
AI-LINETYPE-82
 70
     0
  3
Adobe Illustrator Linetype No. 82
 72
    65
 73
     2
 40
2.822222221516666
 49
1.411111110758332
 74
     0
 49
-1.411111110758332
 74
     0
  0
LTYPE
  5
3E7
330
5
100
AcDbSymbolTableRecord
100
AcDbLinetypeTableRecord
  2
AI-LINETYPE-83
 70
     0
  3
Adobe Illustrator Linetype No. 83
 72
    65
 73
     2
 40
2.822222221516666
 49
1.411111110758332
 74
     0
 49
-1.411111110758332
 74
     0
  0
LTYPE
  5
3F0
330
5
100
AcDbSymbolTableRecord
100
AcDbLinetypeTableRecord
  2
AI-LINETYPE-84
 70
     0
  3
Adobe Illustrator Linetype No. 84
 72
    65
 73
     2
 40
2.822222221516666
 49
1.411111110758332
 74
     0
 49
-1.411111110758332
 74
     0
  0
LTYPE
  5
3F9
330
5
100
AcDbSymbolTableRecord
100
AcDbLinetypeTableRecord
  2
AI-LINETYPE-85
 70
     0
  3
Adobe Illustrator Linetype No. 85
 72
    65
 73
     2
 40
2.822222221516666
 49
1.411111110758332
 74
     0
 49
-1.411111110758332
 74
     0
  0
LTYPE
  5
402
330
5
100
AcDbSymbolTableRecord
100
AcDbLinetypeTableRecord
  2
AI-LINETYPE-86
 70
     0
  3
Adobe Illustrator Linetype No. 86
 72
    65
 73
     2
 40
2.822222221516666
 49
1.411111110758332
 74
     0
 49
-1.411111110758332
 74
     0
  0
LTYPE
  5
40B
330
5
100
AcDbSymbolTableRecord
100
AcDbLinetypeTableRecord
  2
AI-LINETYPE-87
 70
     0
  3
Adobe Illustrator Linetype No. 87
 72
    65
 73
     2
 40
2.822222221516666
 49
1.411111110758332
 74
     0
 49
-1.411111110758332
 74
     0
  0
LTYPE
  5
787
330
5
100
AcDbSymbolTableRecord
100
AcDbLinetypeTableRecord
  2
PHANTOM2
 70
     0
  3
Phantom (.5x) ___ _ _ ___ _ _ ___ _ _ ___ _ _
 72
    65
 73
     6
 40
1.25
 49
0.625
 74
     0
 49
-0.125
 74
     0
 49
0.125
 74
     0
 49
-0.125
 74
     0
 49
0.125
 74
     0
 49
-0.125
 74
     0
  0
LTYPE
  5
7A8
330
5
100
AcDbSymbolTableRecord
100
AcDbLinetypeTableRecord
  2
ACAD_ISO03W100
 70
     0
  3
ISO dash space __    __    __    __    __    __
 72
    65
 73
     2
 40
30.0
 49
12.0
 74
     0
 49
-18.0
 74
     0
  0
ENDTAB
  0
TABLE
  2
LAYER
  5
2
102
{ACAD_XDICTIONARY
360
A9D
102
}
330
0
100
AcDbSymbolTable
 70
     5
  0
LAYER
  5
10
102
{ACAD_XDICTIONARY
360
791
102
}
330
2
100
AcDbSymbolTableRecord
100
AcDbLayerTableRecord
  2
0
 70
     0
 62
     7
  6
CONTINUOUS
370
    -3
390
74C
347
75E
348
0
  0
LAYER
  5
3B
102
{ACAD_XDICTIONARY
360
793
102
}
330
2
100
AcDbSymbolTableRecord
100
AcDbLayerTableRecord
  2
CUTLINE
 70
     0
 62
     7
  6
CONTINUOUS
370
    -3
390
74C
347
75E
348
0
  0
LAYER
  5
FC
102
{ACAD_XDICTIONARY
360
795
102
}
330
2
100
AcDbSymbolTableRecord
100
AcDbLayerTableRecord
  2
valley_fold
 70
     0
 62
     7
  6
CONTINUOUS
370
    -3
390
74C
347
75E
348
0
  0
LAYER
  5
40C
102
{ACAD_XDICTIONARY
360
797
102
}
330
2
100
AcDbSymbolTableRecord
100
AcDbLayerTableRecord
  2
mountain_fold
 70
     0
 62
     7
  6
CONTINUOUS
370
    -3
390
74C
347
75E
348
0
  0
LAYER
  5
BBC
330
2
100
AcDbSymbolTableRecord
100
AcDbLayerTableRecord
  2
hide
 70
     0
 62
    -9
  6
CONTINUOUS
370
    -3
390
74C
347
75E
348
0
1001
AcAecLayerStandard
1000

1000

1001
AcCmTransparency
1071
        0
  0
ENDTAB
  0
TABLE
  2
STYLE
  5
3
330
0
100
AcDbSymbolTable
 70
     3
  0
STYLE
  5
11
330
3
100
AcDbSymbolTableRecord
100
AcDbTextStyleTableRecord
  2
STANDARD
 70
     0
 40
0.0
 41
1.0
 50
0.0
 71
     0
 42
0.2
  3
txt
  4

  0
STYLE
  5
7A7
330
3
100
AcDbSymbolTableRecord
100
AcDbTextStyleTableRecord
  2

 70
     1
 40
0.0
 41
1.0
 50
0.0
 71
     0
 42
0.2
  3
ltypeshp.shx
  4

  0
STYLE
  5
892
330
3
100
AcDbSymbolTableRecord
100
AcDbTextStyleTableRecord
  2
style1
 70
     0
 40
0.0
 41
1.0
 50
0.0
 71
     0
 42
0.2
  3
arial.ttf
  4

1001
ACAD
1000
Arial
1071
       34
  0
ENDTAB
  0
TABLE
  2
VIEW
  5
6
330
0
100
AcDbSymbolTable
 70
     0
  0
ENDTAB
  0
TABLE
  2
UCS
  5
7
330
0
100
AcDbSymbolTable
 70
     0
  0
ENDTAB
  0
TABLE
  2
APPID
  5
9
330
0
100
AcDbSymbolTable
 70
     7
  0
APPID
  5
12
330
9
100
AcDbSymbolTableRecord
100
AcDbRegAppTableRecord
  2
ACAD
 70
     0
  0
APPID
  5
79B
330
9
100
AcDbSymbolTableRecord
100
AcDbRegAppTableRecord
  2
ACAD_NAV_VCDISPLAY
 70
     0
  0
APPID
  5
893
330
9
100
AcDbSymbolTableRecord
100
AcDbRegAppTableRecord
  2
AcadAnnoPO
 70
     0
  0
APPID
  5
AFF
330
9
100
AcDbSymbolTableRecord
100
AcDbRegAppTableRecord
  2
ACAD_PSEXT
 70
     0
  0
APPID
  5
B9B
330
9
100
AcDbSymbolTableRecord
100
AcDbRegAppTableRecord
  2
ACAD_EXEMPT_FROM_CAD_STANDARDS
 70
     0
  0
APPID
  5
BBD
330
9
100
AcDbSymbolTableRecord
100
AcDbRegAppTableRecord
  2
AcAecLayerStandard
 70
     0
  0
APPID
  5
BBE
330
9
100
AcDbSymbolTableRecord
100
AcDbRegAppTableRecord
  2
AcCmTransparency
 70
     0
  0
ENDTAB
  0
TABLE
  2
DIMSTYLE
  5
A
330
0
100
AcDbSymbolTable
 70
     1
100
AcDbDimStyleTable
 71
     1
340
27
  0
DIMSTYLE
105
27
330
A
100
AcDbSymbolTableRecord
100
AcDbDimStyleTableRecord
  2
STANDARD
 70
     0
340
11
  0
ENDTAB
  0
TABLE
  2
BLOCK_RECORD
  5
1
330
0
100
AcDbSymbolTable
 70
   214
  0
BLOCK_RECORD
  5
1F
102
{ACAD_XDICTIONARY
360
7AA
102
}
330
1
100
AcDbSymbolTableRecord
100
AcDbBlockTableRecord
  2
*MODEL_SPACE
340
78B
 70
     0
280
     1
281
     0
  0
BLOCK_RECORD
  5
1B
330
1
100
AcDbSymbolTableRecord
100
AcDbBlockTableRecord
  2
*PAPER_SPACE
340
78C
 70
     0
280
     1
281
     0
  0
BLOCK_RECORD
  5
3C
330
1
100
AcDbSymbolTableRecord
100
AcDbBlockTableRecord
  2
BLOCK_2
340
0
 70
     0
280
     1
281
     0
  0
BLOCK_RECORD
  5
44
330
1
100
AcDbSymbolTableRecord
100
AcDbBlockTableRecord
  2
BLOCK_3
340
0
 70
     0
280
     1
281
     0
  0
BLOCK_RECORD
  5
4C
330
1
100
AcDbSymbolTableRecord
100
AcDbBlockTableRecord
  2
BLOCK_4
340
0
 70
     0
280
     1
281
     0
  0
BLOCK_RECORD
  5
54
330
1
100
AcDbSymbolTableRecord
100
AcDbBlockTableRecord
  2
BLOCK_5
340
0
 70
     0
280
     1
281
     0
  0
BLOCK_RECORD
  5
5C
330
1
100
AcDbSymbolTableRecord
100
AcDbBlockTableRecord
  2
BLOCK_6
340
0
 70
     0
280
     1
281
     0
  0
BLOCK_RECORD
  5
64
330
1
100
AcDbSymbolTableRecord
100
AcDbBlockTableRecord
  2
BLOCK_7
340
0
 70
     0
280
     1
281
     0
  0
BLOCK_RECORD
  5
6C
330
1
100
AcDbSymbolTableRecord
100
AcDbBlockTableRecord
  2
BLOCK_8
340
0
 70
     0
280
     1
281
     0
  0
BLOCK_RECORD
  5
74
330
1
100
AcDbSymbolTableRecord
100
AcDbBlockTableRecord
  2
BLOCK_9
340
0
 70
     0
280
     1
281
     0
  0
BLOCK_RECORD
  5
7C
330
1
100
AcDbSymbolTableRecord
100
AcDbBlockTableRecord
  2
BLOCK_10
340
0
 70
     0
280
     1
281
     0
  0
BLOCK_RECORD
  5
84
330
1
100
AcDbSymbolTableRecord
100
AcDbBlockTableRecord
  2
BLOCK_11
340
0
 70
     0
280
     1
281
     0
  0
BLOCK_RECORD
  5
8C
330
1
100
AcDbSymbolTableRecord
100
AcDbBlockTableRecord
  2
BLOCK_12
340
0
 70
     0
280
     1
281
     0
  0
BLOCK_RECORD
  5
94
330
1
100
AcDbSymbolTableRecord
100
AcDbBlockTableRecord
  2
BLOCK_13
340
0
 70
     0
280
     1
281
     0
  0
BLOCK_RECORD
  5
9C
330
1
100
AcDbSymbolTableRecord
100
AcDbBlockTableRecord
  2
BLOCK_14
340
0
 70
     0
280
     1
281
     0
  0
BLOCK_RECORD
  5
A4
330
1
100
AcDbSymbolTableRecord
100
AcDbBlockTableRecord
  2
BLOCK_15
340
0
 70
     0
280
     1
281
     0
  0
BLOCK_RECORD
  5
AC
330
1
100
AcDbSymbolTableRecord
100
AcDbBlockTableRecord
  2
BLOCK_16
340
0
 70
     0
280
     1
281
     0
  0
BLOCK_RECORD
  5
B4
330
1
100
AcDbSymbolTableRecord
100
AcDbBlockTableRecord
  2
BLOCK_17
340
0
 70
     0
280
     1
281
     0
  0
BLOCK_RECORD
  5
BC
330
1
100
AcDbSymbolTableRecord
100
AcDbBlockTableRecord
  2
BLOCK_18
340
0
 70
     0
280
     1
281
     0
  0
BLOCK_RECORD
  5
C4
330
1
100
AcDbSymbolTableRecord
100
AcDbBlockTableRecord
  2
BLOCK_19
340
0
 70
     0
280
     1
281
     0
  0
BLOCK_RECORD
  5
CC
330
1
100
AcDbSymbolTableRecord
100
AcDbBlockTableRecord
  2
BLOCK_20
340
0
 70
     0
280
     1
281
     0
  0
BLOCK_RECORD
  5
D4
330
1
100
AcDbSymbolTableRecord
100
AcDbBlockTableRecord
  2
BLOCK_21
340
0
 70
     0
280
     1
281
     0
  0
BLOCK_RECORD
  5
DC
330
1
100
AcDbSymbolTableRecord
100
AcDbBlockTableRecord
  2
BLOCK_22
340
0
 70
     0
280
     1
281
     0
  0
BLOCK_RECORD
  5
E4
330
1
100
AcDbSymbolTableRecord
100
AcDbBlockTableRecord
  2
BLOCK_23
340
0
 70
     0
280
     1
281
     0
  0
BLOCK_RECORD
  5
EC
330
1
100
AcDbSymbolTableRecord
100
AcDbBlockTableRecord
  2
BLOCK_24
340
0
 70
     0
280
     1
281
     0
  0
BLOCK_RECORD
  5
F4
330
1
100
AcDbSymbolTableRecord
100
AcDbBlockTableRecord
  2
BLOCK_25
340
0
 70
     0
280
     1
281
     0
  0
BLOCK_RECORD
  5
FD
330
1
100
AcDbSymbolTableRecord
100
AcDbBlockTableRecord
  2
BLOCK_26
340
0
 70
     0
280
     1
281
     0
  0
BLOCK_RECORD
  5
106
330
1
100
AcDbSymbolTableRecord
100
AcDbBlockTableRecord
  2
BLOCK_27
340
0
 70
     0
280
     1
281
     0
  0
BLOCK_RECORD
  5
10F
330
1
100
AcDbSymbolTableRecord
100
AcDbBlockTableRecord
  2
BLOCK_28
340
0
 70
     0
280
     1
281
     0
  0
BLOCK_RECORD
  5
118
330
1
100
AcDbSymbolTableRecord
100
AcDbBlockTableRecord
  2
BLOCK_29
340
0
 70
     0
280
     1
281
     0
  0
BLOCK_RECORD
  5
121
330
1
100
AcDbSymbolTableRecord
100
AcDbBlockTableRecord
  2
BLOCK_30
340
0
 70
     0
280
     1
281
     0
  0
BLOCK_RECORD
  5
12A
330
1
100
AcDbSymbolTableRecord
100
AcDbBlockTableRecord
  2
BLOCK_31
340
0
 70
     0
280
     1
281
     0
  0
BLOCK_RECORD
  5
133
330
1
100
AcDbSymbolTableRecord
100
AcDbBlockTableRecord
  2
BLOCK_32
340
0
 70
     0
280
     1
281
     0
  0
BLOCK_RECORD
  5
13C
330
1
100
AcDbSymbolTableRecord
100
AcDbBlockTableRecord
  2
BLOCK_33
340
0
 70
     0
280
     1
281
     0
  0
BLOCK_RECORD
  5
145
330
1
100
AcDbSymbolTableRecord
100
AcDbBlockTableRecord
  2
BLOCK_34
340
0
 70
     0
280
     1
281
     0
  0
BLOCK_RECORD
  5
14E
330
1
100
AcDbSymbolTableRecord
100
AcDbBlockTableRecord
  2
BLOCK_35
340
0
 70
     0
280
     1
281
     0
  0
BLOCK_RECORD
  5
157
330
1
100
AcDbSymbolTableRecord
100
AcDbBlockTableRecord
  2
BLOCK_36
340
0
 70
     0
280
     1
281
     0
  0
BLOCK_RECORD
  5
160
330
1
100
AcDbSymbolTableRecord
100
AcDbBlockTableRecord
  2
BLOCK_37
340
0
 70
     0
280
     1
281
     0
  0
BLOCK_RECORD
  5
169
330
1
100
AcDbSymbolTableRecord
100
AcDbBlockTableRecord
  2
BLOCK_38
340
0
 70
     0
280
     1
281
     0
  0
BLOCK_RECORD
  5
172
330
1
100
AcDbSymbolTableRecord
100
AcDbBlockTableRecord
  2
BLOCK_39
340
0
 70
     0
280
     1
281
     0
  0
BLOCK_RECORD
  5
17B
330
1
100
AcDbSymbolTableRecord
100
AcDbBlockTableRecord
  2
BLOCK_40
340
0
 70
     0
280
     1
281
     0
  0
BLOCK_RECORD
  5
184
330
1
100
AcDbSymbolTableRecord
100
AcDbBlockTableRecord
  2
BLOCK_41
340
0
 70
     0
280
     1
281
     0
  0
BLOCK_RECORD
  5
18D
330
1
100
AcDbSymbolTableRecord
100
AcDbBlockTableRecord
  2
BLOCK_42
340
0
 70
     0
280
     1
281
     0
  0
BLOCK_RECORD
  5
196
330
1
100
AcDbSymbolTableRecord
100
AcDbBlockTableRecord
  2
BLOCK_43
340
0
 70
     0
280
     1
281
     0
  0
BLOCK_RECORD
  5
19F
330
1
100
AcDbSymbolTableRecord
100
AcDbBlockTableRecord
  2
BLOCK_44
340
0
 70
     0
280
     1
281
     0
  0
BLOCK_RECORD
  5
1A8
330
1
100
AcDbSymbolTableRecord
100
AcDbBlockTableRecord
  2
BLOCK_45
340
0
 70
     0
280
     1
281
     0
  0
BLOCK_RECORD
  5
1B1
330
1
100
AcDbSymbolTableRecord
100
AcDbBlockTableRecord
  2
BLOCK_46
340
0
 70
     0
280
     1
281
     0
  0
BLOCK_RECORD
  5
1BA
330
1
100
AcDbSymbolTableRecord
100
AcDbBlockTableRecord
  2
BLOCK_47
340
0
 70
     0
280
     1
281
     0
  0
BLOCK_RECORD
  5
1C3
330
1
100
AcDbSymbolTableRecord
100
AcDbBlockTableRecord
  2
BLOCK_48
340
0
 70
     0
280
     1
281
     0
  0
BLOCK_RECORD
  5
1CC
330
1
100
AcDbSymbolTableRecord
100
AcDbBlockTableRecord
  2
BLOCK_49
340
0
 70
     0
280
     1
281
     0
  0
BLOCK_RECORD
  5
1D5
330
1
100
AcDbSymbolTableRecord
100
AcDbBlockTableRecord
  2
BLOCK_50
340
0
 70
     0
280
     1
281
     0
  0
BLOCK_RECORD
  5
1DE
330
1
100
AcDbSymbolTableRecord
100
AcDbBlockTableRecord
  2
BLOCK_51
340
0
 70
     0
280
     1
281
     0
  0
BLOCK_RECORD
  5
1E7
330
1
100
AcDbSymbolTableRecord
100
AcDbBlockTableRecord
  2
BLOCK_52
340
0
 70
     0
280
     1
281
     0
  0
BLOCK_RECORD
  5
1F0
330
1
100
AcDbSymbolTableRecord
100
AcDbBlockTableRecord
  2
BLOCK_53
340
0
 70
     0
280
     1
281
     0
  0
BLOCK_RECORD
  5
1F9
330
1
100
AcDbSymbolTableRecord
100
AcDbBlockTableRecord
  2
BLOCK_54
340
0
 70
     0
280
     1
281
     0
  0
BLOCK_RECORD
  5
202
330
1
100
AcDbSymbolTableRecord
100
AcDbBlockTableRecord
  2
BLOCK_55
340
0
 70
     0
280
     1
281
     0
  0
BLOCK_RECORD
  5
20B
330
1
100
AcDbSymbolTableRecord
100
AcDbBlockTableRecord
  2
BLOCK_56
340
0
 70
     0
280
     1
281
     0
  0
BLOCK_RECORD
  5
214
330
1
100
AcDbSymbolTableRecord
100
AcDbBlockTableRecord
  2
BLOCK_57
340
0
 70
     0
280
     1
281
     0
  0
BLOCK_RECORD
  5
21D
330
1
100
AcDbSymbolTableRecord
100
AcDbBlockTableRecord
  2
BLOCK_58
340
0
 70
     0
280
     1
281
     0
  0
BLOCK_RECORD
  5
226
330
1
100
AcDbSymbolTableRecord
100
AcDbBlockTableRecord
  2
BLOCK_59
340
0
 70
     0
280
     1
281
     0
  0
BLOCK_RECORD
  5
22F
330
1
100
AcDbSymbolTableRecord
100
AcDbBlockTableRecord
  2
BLOCK_60
340
0
 70
     0
280
     1
281
     0
  0
BLOCK_RECORD
  5
238
330
1
100
AcDbSymbolTableRecord
100
AcDbBlockTableRecord
  2
BLOCK_61
340
0
 70
     0
280
     1
281
     0
  0
BLOCK_RECORD
  5
241
330
1
100
AcDbSymbolTableRecord
100
AcDbBlockTableRecord
  2
BLOCK_62
340
0
 70
     0
280
     1
281
     0
  0
BLOCK_RECORD
  5
24A
330
1
100
AcDbSymbolTableRecord
100
AcDbBlockTableRecord
  2
BLOCK_63
340
0
 70
     0
280
     1
281
     0
  0
BLOCK_RECORD
  5
253
330
1
100
AcDbSymbolTableRecord
100
AcDbBlockTableRecord
  2
BLOCK_64
340
0
 70
     0
280
     1
281
     0
  0
BLOCK_RECORD
  5
25C
330
1
100
AcDbSymbolTableRecord
100
AcDbBlockTableRecord
  2
BLOCK_65
340
0
 70
     0
280
     1
281
     0
  0
BLOCK_RECORD
  5
265
330
1
100
AcDbSymbolTableRecord
100
AcDbBlockTableRecord
  2
BLOCK_66
340
0
 70
     0
280
     1
281
     0
  0
BLOCK_RECORD
  5
26E
330
1
100
AcDbSymbolTableRecord
100
AcDbBlockTableRecord
  2
BLOCK_67
340
0
 70
     0
280
     1
281
     0
  0
BLOCK_RECORD
  5
277
330
1
100
AcDbSymbolTableRecord
100
AcDbBlockTableRecord
  2
BLOCK_68
340
0
 70
     0
280
     1
281
     0
  0
BLOCK_RECORD
  5
280
330
1
100
AcDbSymbolTableRecord
100
AcDbBlockTableRecord
  2
BLOCK_69
340
0
 70
     0
280
     1
281
     0
  0
BLOCK_RECORD
  5
289
330
1
100
AcDbSymbolTableRecord
100
AcDbBlockTableRecord
  2
BLOCK_70
340
0
 70
     0
280
     1
281
     0
  0
BLOCK_RECORD
  5
292
330
1
100
AcDbSymbolTableRecord
100
AcDbBlockTableRecord
  2
BLOCK_71
340
0
 70
     0
280
     1
281
     0
  0
BLOCK_RECORD
  5
29B
330
1
100
AcDbSymbolTableRecord
100
AcDbBlockTableRecord
  2
BLOCK_72
340
0
 70
     0
280
     1
281
     0
  0
BLOCK_RECORD
  5
2A4
330
1
100
AcDbSymbolTableRecord
100
AcDbBlockTableRecord
  2
BLOCK_73
340
0
 70
     0
280
     1
281
     0
  0
BLOCK_RECORD
  5
2AD
330
1
100
AcDbSymbolTableRecord
100
AcDbBlockTableRecord
  2
BLOCK_74
340
0
 70
     0
280
     1
281
     0
  0
BLOCK_RECORD
  5
2B6
330
1
100
AcDbSymbolTableRecord
100
AcDbBlockTableRecord
  2
BLOCK_75
340
0
 70
     0
280
     1
281
     0
  0
BLOCK_RECORD
  5
2BF
330
1
100
AcDbSymbolTableRecord
100
AcDbBlockTableRecord
  2
BLOCK_76
340
0
 70
     0
280
     1
281
     0
  0
BLOCK_RECORD
  5
2C8
330
1
100
AcDbSymbolTableRecord
100
AcDbBlockTableRecord
  2
BLOCK_77
340
0
 70
     0
280
     1
281
     0
  0
BLOCK_RECORD
  5
2D1
330
1
100
AcDbSymbolTableRecord
100
AcDbBlockTableRecord
  2
BLOCK_78
340
0
 70
     0
280
     1
281
     0
  0
BLOCK_RECORD
  5
2DA
330
1
100
AcDbSymbolTableRecord
100
AcDbBlockTableRecord
  2
BLOCK_79
340
0
 70
     0
280
     1
281
     0
  0
BLOCK_RECORD
  5
2E3
330
1
100
AcDbSymbolTableRecord
100
AcDbBlockTableRecord
  2
BLOCK_80
340
0
 70
     0
280
     1
281
     0
  0
BLOCK_RECORD
  5
2EC
330
1
100
AcDbSymbolTableRecord
100
AcDbBlockTableRecord
  2
BLOCK_81
340
0
 70
     0
280
     1
281
     0
  0
BLOCK_RECORD
  5
2F5
330
1
100
AcDbSymbolTableRecord
100
AcDbBlockTableRecord
  2
BLOCK_82
340
0
 70
     0
280
     1
281
     0
  0
BLOCK_RECORD
  5
2FE
330
1
100
AcDbSymbolTableRecord
100
AcDbBlockTableRecord
  2
BLOCK_83
340
0
 70
     0
280
     1
281
     0
  0
BLOCK_RECORD
  5
307
330
1
100
AcDbSymbolTableRecord
100
AcDbBlockTableRecord
  2
BLOCK_84
340
0
 70
     0
280
     1
281
     0
  0
BLOCK_RECORD
  5
310
330
1
100
AcDbSymbolTableRecord
100
AcDbBlockTableRecord
  2
BLOCK_85
340
0
 70
     0
280
     1
281
     0
  0
BLOCK_RECORD
  5
319
330
1
100
AcDbSymbolTableRecord
100
AcDbBlockTableRecord
  2
BLOCK_86
340
0
 70
     0
280
     1
281
     0
  0
BLOCK_RECORD
  5
322
330
1
100
AcDbSymbolTableRecord
100
AcDbBlockTableRecord
  2
BLOCK_87
340
0
 70
     0
280
     1
281
     0
  0
BLOCK_RECORD
  5
32B
330
1
100
AcDbSymbolTableRecord
100
AcDbBlockTableRecord
  2
BLOCK_88
340
0
 70
     0
280
     1
281
     0
  0
BLOCK_RECORD
  5
334
330
1
100
AcDbSymbolTableRecord
100
AcDbBlockTableRecord
  2
BLOCK_89
340
0
 70
     0
280
     1
281
     0
  0
BLOCK_RECORD
  5
33D
330
1
100
AcDbSymbolTableRecord
100
AcDbBlockTableRecord
  2
BLOCK_90
340
0
 70
     0
280
     1
281
     0
  0
BLOCK_RECORD
  5
346
330
1
100
AcDbSymbolTableRecord
100
AcDbBlockTableRecord
  2
BLOCK_91
340
0
 70
     0
280
     1
281
     0
  0
BLOCK_RECORD
  5
34F
330
1
100
AcDbSymbolTableRecord
100
AcDbBlockTableRecord
  2
BLOCK_92
340
0
 70
     0
280
     1
281
     0
  0
BLOCK_RECORD
  5
358
330
1
100
AcDbSymbolTableRecord
100
AcDbBlockTableRecord
  2
BLOCK_93
340
0
 70
     0
280
     1
281
     0
  0
BLOCK_RECORD
  5
361
330
1
100
AcDbSymbolTableRecord
100
AcDbBlockTableRecord
  2
BLOCK_94
340
0
 70
     0
280
     1
281
     0
  0
BLOCK_RECORD
  5
36A
330
1
100
AcDbSymbolTableRecord
100
AcDbBlockTableRecord
  2
BLOCK_95
340
0
 70
     0
280
     1
281
     0
  0
BLOCK_RECORD
  5
373
330
1
100
AcDbSymbolTableRecord
100
AcDbBlockTableRecord
  2
BLOCK_96
340
0
 70
     0
280
     1
281
     0
  0
BLOCK_RECORD
  5
37C
330
1
100
AcDbSymbolTableRecord
100
AcDbBlockTableRecord
  2
BLOCK_97
340
0
 70
     0
280
     1
281
     0
  0
BLOCK_RECORD
  5
385
330
1
100
AcDbSymbolTableRecord
100
AcDbBlockTableRecord
  2
BLOCK_98
340
0
 70
     0
280
     1
281
     0
  0
BLOCK_RECORD
  5
38E
330
1
100
AcDbSymbolTableRecord
100
AcDbBlockTableRecord
  2
BLOCK_99
340
0
 70
     0
280
     1
281
     0
  0
BLOCK_RECORD
  5
397
330
1
100
AcDbSymbolTableRecord
100
AcDbBlockTableRecord
  2
BLOCK_100
340
0
 70
     0
280
     1
281
     0
  0
BLOCK_RECORD
  5
3A0
330
1
100
AcDbSymbolTableRecord
100
AcDbBlockTableRecord
  2
BLOCK_101
340
0
 70
     0
280
     1
281
     0
  0
BLOCK_RECORD
  5
3A9
330
1
100
AcDbSymbolTableRecord
100
AcDbBlockTableRecord
  2
BLOCK_102
340
0
 70
     0
280
     1
281
     0
  0
BLOCK_RECORD
  5
3B2
330
1
100
AcDbSymbolTableRecord
100
AcDbBlockTableRecord
  2
BLOCK_103
340
0
 70
     0
280
     1
281
     0
  0
BLOCK_RECORD
  5
3BB
330
1
100
AcDbSymbolTableRecord
100
AcDbBlockTableRecord
  2
BLOCK_104
340
0
 70
     0
280
     1
281
     0
  0
BLOCK_RECORD
  5
3C4
330
1
100
AcDbSymbolTableRecord
100
AcDbBlockTableRecord
  2
BLOCK_105
340
0
 70
     0
280
     1
281
     0
  0
BLOCK_RECORD
  5
3CD
330
1
100
AcDbSymbolTableRecord
100
AcDbBlockTableRecord
  2
BLOCK_106
340
0
 70
     0
280
     1
281
     0
  0
BLOCK_RECORD
  5
3D6
330
1
100
AcDbSymbolTableRecord
100
AcDbBlockTableRecord
  2
BLOCK_107
340
0
 70
     0
280
     1
281
     0
  0
BLOCK_RECORD
  5
3DF
330
1
100
AcDbSymbolTableRecord
100
AcDbBlockTableRecord
  2
BLOCK_108
340
0
 70
     0
280
     1
281
     0
  0
BLOCK_RECORD
  5
3E8
330
1
100
AcDbSymbolTableRecord
100
AcDbBlockTableRecord
  2
BLOCK_109
340
0
 70
     0
280
     1
281
     0
  0
BLOCK_RECORD
  5
3F1
330
1
100
AcDbSymbolTableRecord
100
AcDbBlockTableRecord
  2
BLOCK_110
340
0
 70
     0
280
     1
281
     0
  0
BLOCK_RECORD
  5
3FA
330
1
100
AcDbSymbolTableRecord
100
AcDbBlockTableRecord
  2
BLOCK_111
340
0
 70
     0
280
     1
281
     0
  0
BLOCK_RECORD
  5
403
330
1
100
AcDbSymbolTableRecord
100
AcDbBlockTableRecord
  2
BLOCK_112
340
0
 70
     0
280
     1
281
     0
  0
BLOCK_RECORD
  5
40D
330
1
100
AcDbSymbolTableRecord
100
AcDbBlockTableRecord
  2
BLOCK_113
340
0
 70
     0
280
     1
281
     0
  0
BLOCK_RECORD
  5
415
330
1
100
AcDbSymbolTableRecord
100
AcDbBlockTableRecord
  2
BLOCK_114
340
0
 70
     0
280
     1
281
     0
  0
BLOCK_RECORD
  5
41D
330
1
100
AcDbSymbolTableRecord
100
AcDbBlockTableRecord
  2
BLOCK_115
340
0
 70
     0
280
     1
281
     0
  0
BLOCK_RECORD
  5
425
330
1
100
AcDbSymbolTableRecord
100
AcDbBlockTableRecord
  2
BLOCK_116
340
0
 70
     0
280
     1
281
     0
  0
BLOCK_RECORD
  5
42D
330
1
100
AcDbSymbolTableRecord
100
AcDbBlockTableRecord
  2
BLOCK_117
340
0
 70
     0
280
     1
281
     0
  0
BLOCK_RECORD
  5
435
330
1
100
AcDbSymbolTableRecord
100
AcDbBlockTableRecord
  2
BLOCK_118
340
0
 70
     0
280
     1
281
     0
  0
BLOCK_RECORD
  5
43D
330
1
100
AcDbSymbolTableRecord
100
AcDbBlockTableRecord
  2
BLOCK_119
340
0
 70
     0
280
     1
281
     0
  0
BLOCK_RECORD
  5
445
330
1
100
AcDbSymbolTableRecord
100
AcDbBlockTableRecord
  2
BLOCK_120
340
0
 70
     0
280
     1
281
     0
  0
BLOCK_RECORD
  5
44D
330
1
100
AcDbSymbolTableRecord
100
AcDbBlockTableRecord
  2
BLOCK_121
340
0
 70
     0
280
     1
281
     0
  0
BLOCK_RECORD
  5
455
330
1
100
AcDbSymbolTableRecord
100
AcDbBlockTableRecord
  2
BLOCK_122
340
0
 70
     0
280
     1
281
     0
  0
BLOCK_RECORD
  5
45D
330
1
100
AcDbSymbolTableRecord
100
AcDbBlockTableRecord
  2
BLOCK_123
340
0
 70
     0
280
     1
281
     0
  0
BLOCK_RECORD
  5
465
330
1
100
AcDbSymbolTableRecord
100
AcDbBlockTableRecord
  2
BLOCK_124
340
0
 70
     0
280
     1
281
     0
  0
BLOCK_RECORD
  5
46D
330
1
100
AcDbSymbolTableRecord
100
AcDbBlockTableRecord
  2
BLOCK_125
340
0
 70
     0
280
     1
281
     0
  0
BLOCK_RECORD
  5
475
330
1
100
AcDbSymbolTableRecord
100
AcDbBlockTableRecord
  2
BLOCK_126
340
0
 70
     0
280
     1
281
     0
  0
BLOCK_RECORD
  5
47D
330
1
100
AcDbSymbolTableRecord
100
AcDbBlockTableRecord
  2
BLOCK_127
340
0
 70
     0
280
     1
281
     0
  0
BLOCK_RECORD
  5
485
330
1
100
AcDbSymbolTableRecord
100
AcDbBlockTableRecord
  2
BLOCK_128
340
0
 70
     0
280
     1
281
     0
  0
BLOCK_RECORD
  5
48D
330
1
100
AcDbSymbolTableRecord
100
AcDbBlockTableRecord
  2
BLOCK_129
340
0
 70
     0
280
     1
281
     0
  0
BLOCK_RECORD
  5
495
330
1
100
AcDbSymbolTableRecord
100
AcDbBlockTableRecord
  2
BLOCK_130
340
0
 70
     0
280
     1
281
     0
  0
BLOCK_RECORD
  5
49D
330
1
100
AcDbSymbolTableRecord
100
AcDbBlockTableRecord
  2
BLOCK_131
340
0
 70
     0
280
     1
281
     0
  0
BLOCK_RECORD
  5
4A5
330
1
100
AcDbSymbolTableRecord
100
AcDbBlockTableRecord
  2
BLOCK_132
340
0
 70
     0
280
     1
281
     0
  0
BLOCK_RECORD
  5
4AD
330
1
100
AcDbSymbolTableRecord
100
AcDbBlockTableRecord
  2
BLOCK_133
340
0
 70
     0
280
     1
281
     0
  0
BLOCK_RECORD
  5
4B5
330
1
100
AcDbSymbolTableRecord
100
AcDbBlockTableRecord
  2
BLOCK_134
340
0
 70
     0
280
     1
281
     0
  0
BLOCK_RECORD
  5
4BD
330
1
100
AcDbSymbolTableRecord
100
AcDbBlockTableRecord
  2
BLOCK_135
340
0
 70
     0
280
     1
281
     0
  0
BLOCK_RECORD
  5
4C5
330
1
100
AcDbSymbolTableRecord
100
AcDbBlockTableRecord
  2
BLOCK_136
340
0
 70
     0
280
     1
281
     0
  0
BLOCK_RECORD
  5
4CD
330
1
100
AcDbSymbolTableRecord
100
AcDbBlockTableRecord
  2
BLOCK_137
340
0
 70
     0
280
     1
281
     0
  0
BLOCK_RECORD
  5
4D5
330
1
100
AcDbSymbolTableRecord
100
AcDbBlockTableRecord
  2
BLOCK_138
340
0
 70
     0
280
     1
281
     0
  0
BLOCK_RECORD
  5
4DD
330
1
100
AcDbSymbolTableRecord
100
AcDbBlockTableRecord
  2
BLOCK_139
340
0
 70
     0
280
     1
281
     0
  0
BLOCK_RECORD
  5
4E5
330
1
100
AcDbSymbolTableRecord
100
AcDbBlockTableRecord
  2
BLOCK_140
340
0
 70
     0
280
     1
281
     0
  0
BLOCK_RECORD
  5
4ED
330
1
100
AcDbSymbolTableRecord
100
AcDbBlockTableRecord
  2
BLOCK_141
340
0
 70
     0
280
     1
281
     0
  0
BLOCK_RECORD
  5
4F5
330
1
100
AcDbSymbolTableRecord
100
AcDbBlockTableRecord
  2
BLOCK_142
340
0
 70
     0
280
     1
281
     0
  0
BLOCK_RECORD
  5
4FD
330
1
100
AcDbSymbolTableRecord
100
AcDbBlockTableRecord
  2
BLOCK_143
340
0
 70
     0
280
     1
281
     0
  0
BLOCK_RECORD
  5
505
330
1
100
AcDbSymbolTableRecord
100
AcDbBlockTableRecord
  2
BLOCK_144
340
0
 70
     0
280
     1
281
     0
  0
BLOCK_RECORD
  5
50D
330
1
100
AcDbSymbolTableRecord
100
AcDbBlockTableRecord
  2
BLOCK_145
340
0
 70
     0
280
     1
281
     0
  0
BLOCK_RECORD
  5
515
330
1
100
AcDbSymbolTableRecord
100
AcDbBlockTableRecord
  2
BLOCK_146
340
0
 70
     0
280
     1
281
     0
  0
BLOCK_RECORD
  5
51D
330
1
100
AcDbSymbolTableRecord
100
AcDbBlockTableRecord
  2
BLOCK_147
340
0
 70
     0
280
     1
281
     0
  0
BLOCK_RECORD
  5
525
330
1
100
AcDbSymbolTableRecord
100
AcDbBlockTableRecord
  2
BLOCK_148
340
0
 70
     0
280
     1
281
     0
  0
BLOCK_RECORD
  5
52D
330
1
100
AcDbSymbolTableRecord
100
AcDbBlockTableRecord
  2
BLOCK_149
340
0
 70
     0
280
     1
281
     0
  0
BLOCK_RECORD
  5
535
330
1
100
AcDbSymbolTableRecord
100
AcDbBlockTableRecord
  2
BLOCK_150
340
0
 70
     0
280
     1
281
     0
  0
BLOCK_RECORD
  5
53D
330
1
100
AcDbSymbolTableRecord
100
AcDbBlockTableRecord
  2
BLOCK_151
340
0
 70
     0
280
     1
281
     0
  0
BLOCK_RECORD
  5
545
330
1
100
AcDbSymbolTableRecord
100
AcDbBlockTableRecord
  2
BLOCK_152
340
0
 70
     0
280
     1
281
     0
  0
BLOCK_RECORD
  5
54D
330
1
100
AcDbSymbolTableRecord
100
AcDbBlockTableRecord
  2
BLOCK_153
340
0
 70
     0
280
     1
281
     0
  0
BLOCK_RECORD
  5
555
330
1
100
AcDbSymbolTableRecord
100
AcDbBlockTableRecord
  2
BLOCK_154
340
0
 70
     0
280
     1
281
     0
  0
BLOCK_RECORD
  5
55D
330
1
100
AcDbSymbolTableRecord
100
AcDbBlockTableRecord
  2
BLOCK_155
340
0
 70
     0
280
     1
281
     0
  0
BLOCK_RECORD
  5
565
330
1
100
AcDbSymbolTableRecord
100
AcDbBlockTableRecord
  2
BLOCK_156
340
0
 70
     0
280
     1
281
     0
  0
BLOCK_RECORD
  5
56D
330
1
100
AcDbSymbolTableRecord
100
AcDbBlockTableRecord
  2
BLOCK_157
340
0
 70
     0
280
     1
281
     0
  0
BLOCK_RECORD
  5
575
330
1
100
AcDbSymbolTableRecord
100
AcDbBlockTableRecord
  2
BLOCK_158
340
0
 70
     0
280
     1
281
     0
  0
BLOCK_RECORD
  5
57D
330
1
100
AcDbSymbolTableRecord
100
AcDbBlockTableRecord
  2
BLOCK_159
340
0
 70
     0
280
     1
281
     0
  0
BLOCK_RECORD
  5
585
330
1
100
AcDbSymbolTableRecord
100
AcDbBlockTableRecord
  2
BLOCK_160
340
0
 70
     0
280
     1
281
     0
  0
BLOCK_RECORD
  5
58D
330
1
100
AcDbSymbolTableRecord
100
AcDbBlockTableRecord
  2
BLOCK_161
340
0
 70
     0
280
     1
281
     0
  0
BLOCK_RECORD
  5
595
330
1
100
AcDbSymbolTableRecord
100
AcDbBlockTableRecord
  2
BLOCK_162
340
0
 70
     0
280
     1
281
     0
  0
BLOCK_RECORD
  5
59D
330
1
100
AcDbSymbolTableRecord
100
AcDbBlockTableRecord
  2
BLOCK_163
340
0
 70
     0
280
     1
281
     0
  0
BLOCK_RECORD
  5
5A5
330
1
100
AcDbSymbolTableRecord
100
AcDbBlockTableRecord
  2
BLOCK_164
340
0
 70
     0
280
     1
281
     0
  0
BLOCK_RECORD
  5
5AD
330
1
100
AcDbSymbolTableRecord
100
AcDbBlockTableRecord
  2
BLOCK_165
340
0
 70
     0
280
     1
281
     0
  0
BLOCK_RECORD
  5
5B5
330
1
100
AcDbSymbolTableRecord
100
AcDbBlockTableRecord
  2
BLOCK_166
340
0
 70
     0
280
     1
281
     0
  0
BLOCK_RECORD
  5
5BD
330
1
100
AcDbSymbolTableRecord
100
AcDbBlockTableRecord
  2
BLOCK_167
340
0
 70
     0
280
     1
281
     0
  0
BLOCK_RECORD
  5
5C5
330
1
100
AcDbSymbolTableRecord
100
AcDbBlockTableRecord
  2
BLOCK_168
340
0
 70
     0
280
     1
281
     0
  0
BLOCK_RECORD
  5
5CD
330
1
100
AcDbSymbolTableRecord
100
AcDbBlockTableRecord
  2
BLOCK_169
340
0
 70
     0
280
     1
281
     0
  0
BLOCK_RECORD
  5
5D5
330
1
100
AcDbSymbolTableRecord
100
AcDbBlockTableRecord
  2
BLOCK_170
340
0
 70
     0
280
     1
281
     0
  0
BLOCK_RECORD
  5
5DD
330
1
100
AcDbSymbolTableRecord
100
AcDbBlockTableRecord
  2
BLOCK_171
340
0
 70
     0
280
     1
281
     0
  0
BLOCK_RECORD
  5
5E5
330
1
100
AcDbSymbolTableRecord
100
AcDbBlockTableRecord
  2
BLOCK_172
340
0
 70
     0
280
     1
281
     0
  0
BLOCK_RECORD
  5
5ED
330
1
100
AcDbSymbolTableRecord
100
AcDbBlockTableRecord
  2
BLOCK_173
340
0
 70
     0
280
     1
281
     0
  0
BLOCK_RECORD
  5
5F5
330
1
100
AcDbSymbolTableRecord
100
AcDbBlockTableRecord
  2
BLOCK_174
340
0
 70
     0
280
     1
281
     0
  0
BLOCK_RECORD
  5
5FD
330
1
100
AcDbSymbolTableRecord
100
AcDbBlockTableRecord
  2
BLOCK_175
340
0
 70
     0
280
     1
281
     0
  0
BLOCK_RECORD
  5
605
330
1
100
AcDbSymbolTableRecord
100
AcDbBlockTableRecord
  2
BLOCK_176
340
0
 70
     0
280
     1
281
     0
  0
BLOCK_RECORD
  5
60D
330
1
100
AcDbSymbolTableRecord
100
AcDbBlockTableRecord
  2
BLOCK_177
340
0
 70
     0
280
     1
281
     0
  0
BLOCK_RECORD
  5
615
330
1
100
AcDbSymbolTableRecord
100
AcDbBlockTableRecord
  2
BLOCK_178
340
0
 70
     0
280
     1
281
     0
  0
BLOCK_RECORD
  5
61D
330
1
100
AcDbSymbolTableRecord
100
AcDbBlockTableRecord
  2
BLOCK_179
340
0
 70
     0
280
     1
281
     0
  0
BLOCK_RECORD
  5
625
330
1
100
AcDbSymbolTableRecord
100
AcDbBlockTableRecord
  2
BLOCK_180
340
0
 70
     0
280
     1
281
     0
  0
BLOCK_RECORD
  5
62D
330
1
100
AcDbSymbolTableRecord
100
AcDbBlockTableRecord
  2
BLOCK_181
340
0
 70
     0
280
     1
281
     0
  0
BLOCK_RECORD
  5
635
330
1
100
AcDbSymbolTableRecord
100
AcDbBlockTableRecord
  2
BLOCK_182
340
0
 70
     0
280
     1
281
     0
  0
BLOCK_RECORD
  5
63D
330
1
100
AcDbSymbolTableRecord
100
AcDbBlockTableRecord
  2
BLOCK_183
340
0
 70
     0
280
     1
281
     0
  0
BLOCK_RECORD
  5
645
330
1
100
AcDbSymbolTableRecord
100
AcDbBlockTableRecord
  2
BLOCK_184
340
0
 70
     0
280
     1
281
     0
  0
BLOCK_RECORD
  5
64D
330
1
100
AcDbSymbolTableRecord
100
AcDbBlockTableRecord
  2
BLOCK_185
340
0
 70
     0
280
     1
281
     0
  0
BLOCK_RECORD
  5
655
330
1
100
AcDbSymbolTableRecord
100
AcDbBlockTableRecord
  2
BLOCK_186
340
0
 70
     0
280
     1
281
     0
  0
BLOCK_RECORD
  5
65D
330
1
100
AcDbSymbolTableRecord
100
AcDbBlockTableRecord
  2
BLOCK_187
340
0
 70
     0
280
     1
281
     0
  0
BLOCK_RECORD
  5
665
330
1
100
AcDbSymbolTableRecord
100
AcDbBlockTableRecord
  2
BLOCK_188
340
0
 70
     0
280
     1
281
     0
  0
BLOCK_RECORD
  5
66D
330
1
100
AcDbSymbolTableRecord
100
AcDbBlockTableRecord
  2
BLOCK_189
340
0
 70
     0
280
     1
281
     0
  0
BLOCK_RECORD
  5
675
330
1
100
AcDbSymbolTableRecord
100
AcDbBlockTableRecord
  2
BLOCK_190
340
0
 70
     0
280
     1
281
     0
  0
BLOCK_RECORD
  5
67D
330
1
100
AcDbSymbolTableRecord
100
AcDbBlockTableRecord
  2
BLOCK_191
340
0
 70
     0
280
     1
281
     0
  0
BLOCK_RECORD
  5
685
330
1
100
AcDbSymbolTableRecord
100
AcDbBlockTableRecord
  2
BLOCK_192
340
0
 70
     0
280
     1
281
     0
  0
BLOCK_RECORD
  5
68D
330
1
100
AcDbSymbolTableRecord
100
AcDbBlockTableRecord
  2
BLOCK_193
340
0
 70
     0
280
     1
281
     0
  0
BLOCK_RECORD
  5
695
330
1
100
AcDbSymbolTableRecord
100
AcDbBlockTableRecord
  2
BLOCK_194
340
0
 70
     0
280
     1
281
     0
  0
BLOCK_RECORD
  5
69D
330
1
100
AcDbSymbolTableRecord
100
AcDbBlockTableRecord
  2
BLOCK_195
340
0
 70
     0
280
     1
281
     0
  0
BLOCK_RECORD
  5
6A5
330
1
100
AcDbSymbolTableRecord
100
AcDbBlockTableRecord
  2
BLOCK_196
340
0
 70
     0
280
     1
281
     0
  0
BLOCK_RECORD
  5
6AD
330
1
100
AcDbSymbolTableRecord
100
AcDbBlockTableRecord
  2
BLOCK_197
340
0
 70
     0
280
     1
281
     0
  0
BLOCK_RECORD
  5
6B5
330
1
100
AcDbSymbolTableRecord
100
AcDbBlockTableRecord
  2
BLOCK_198
340
0
 70
     0
280
     1
281
     0
  0
BLOCK_RECORD
  5
6BD
330
1
100
AcDbSymbolTableRecord
100
AcDbBlockTableRecord
  2
BLOCK_199
340
0
 70
     0
280
     1
281
     0
  0
BLOCK_RECORD
  5
6C5
330
1
100
AcDbSymbolTableRecord
100
AcDbBlockTableRecord
  2
BLOCK_200
340
0
 70
     0
280
     1
281
     0
  0
BLOCK_RECORD
  5
6CD
330
1
100
AcDbSymbolTableRecord
100
AcDbBlockTableRecord
  2
BLOCK_201
340
0
 70
     0
280
     1
281
     0
  0
BLOCK_RECORD
  5
6D5
330
1
100
AcDbSymbolTableRecord
100
AcDbBlockTableRecord
  2
BLOCK_202
340
0
 70
     0
280
     1
281
     0
  0
BLOCK_RECORD
  5
6DD
330
1
100
AcDbSymbolTableRecord
100
AcDbBlockTableRecord
  2
BLOCK_203
340
0
 70
     0
280
     1
281
     0
  0
BLOCK_RECORD
  5
6E5
330
1
100
AcDbSymbolTableRecord
100
AcDbBlockTableRecord
  2
BLOCK_204
340
0
 70
     0
280
     1
281
     0
  0
BLOCK_RECORD
  5
6ED
330
1
100
AcDbSymbolTableRecord
100
AcDbBlockTableRecord
  2
BLOCK_205
340
0
 70
     0
280
     1
281
     0
  0
BLOCK_RECORD
  5
6F5
330
1
100
AcDbSymbolTableRecord
100
AcDbBlockTableRecord
  2
BLOCK_206
340
0
 70
     0
280
     1
281
     0
  0
BLOCK_RECORD
  5
6FD
330
1
100
AcDbSymbolTableRecord
100
AcDbBlockTableRecord
  2
BLOCK_207
340
0
 70
     0
280
     1
281
     0
  0
BLOCK_RECORD
  5
705
330
1
100
AcDbSymbolTableRecord
100
AcDbBlockTableRecord
  2
BLOCK_208
340
0
 70
     0
280
     1
281
     0
  0
BLOCK_RECORD
  5
70D
330
1
100
AcDbSymbolTableRecord
100
AcDbBlockTableRecord
  2
BLOCK_209
340
0
 70
     0
280
     1
281
     0
  0
BLOCK_RECORD
  5
715
330
1
100
AcDbSymbolTableRecord
100
AcDbBlockTableRecord
  2
BLOCK_210
340
0
 70
     0
280
     1
281
     0
  0
BLOCK_RECORD
  5
71D
330
1
100
AcDbSymbolTableRecord
100
AcDbBlockTableRecord
  2
BLOCK_211
340
0
 70
     0
280
     1
281
     0
  0
BLOCK_RECORD
  5
725
330
1
100
AcDbSymbolTableRecord
100
AcDbBlockTableRecord
  2
BLOCK_212
340
0
 70
     0
280
     1
281
     0
  0
BLOCK_RECORD
  5
72D
330
1
100
AcDbSymbolTableRecord
100
AcDbBlockTableRecord
  2
BLOCK_213
340
0
 70
     0
280
     1
281
     0
  0
BLOCK_RECORD
  5
735
330
1
100
AcDbSymbolTableRecord
100
AcDbBlockTableRecord
  2
BLOCK_214
340
0
 70
     0
280
     1
281
     0
  0
BLOCK_RECORD
  5
73D
330
1
100
AcDbSymbolTableRecord
100
AcDbBlockTableRecord
  2
BLOCK_215
340
0
 70
     0
280
     1
281
     0
  0
ENDTAB
  0
ENDSEC
  0
SECTION
  2
BLOCKS
  0
BLOCK
  5
20
330
1F
100
AcDbEntity
  8
0
100
AcDbBlockBegin
  2
*MODEL_SPACE
 70
     0
 10
0.0
 20
0.0
 30
0.0
  3
*MODEL_SPACE
  1

  0
ENDBLK
  5
21
330
1F
100
AcDbEntity
  8
0
100
AcDbBlockEnd
  0
BLOCK
  5
1C
330
1B
100
AcDbEntity
 67
     1
  8
0
100
AcDbBlockBegin
  2
*PAPER_SPACE
 70
     0
 10
0.0
 20
0.0
 30
0.0
  3
*PAPER_SPACE
  1

  0
ENDBLK
  5
1D
330
1B
100
AcDbEntity
 67
     1
  8
0
100
AcDbBlockEnd
  0
BLOCK
  5
3E
330
3C
100
AcDbEntity
  8
0
100
AcDbBlockBegin
  2
BLOCK_2
 70
     0
 10
0.0
 20
0.0
 30
0.0
  3
BLOCK_2
  1

  0
LWPOLYLINE
  5
40
330
3C
100
AcDbEntity
  8
CUTLINE
 62
     7
100
AcDbPolyline
 90
        2
 70
     0
 43
0.0
 10
171.7359428824132
 20
-190.3525498656063
 10
197.9582871683924
 20
-177.241549977391
  0
ENDBLK
  5
3F
330
3C
100
AcDbEntity
  8
0
100
AcDbBlockEnd
  0
BLOCK
  5
46
330
44
100
AcDbEntity
  8
0
100
AcDbBlockBegin
  2
BLOCK_3
 70
     0
 10
0.0
 20
0.0
 30
0.0
  3
BLOCK_3
  1

  0
LWPOLYLINE
  5
48
330
44
100
AcDbEntity
  8
CUTLINE
 62
     7
100
AcDbPolyline
 90
        2
 70
     0
 43
0.0
 10
173.3782199002318
 20
-219.623459146483
 10
171.7359428824132
 20
-190.3525498656063
  0
ENDBLK
  5
47
330
44
100
AcDbEntity
  8
0
100
AcDbBlockEnd
  0
BLOCK
  5
4E
330
4C
100
AcDbEntity
  8
0
100
AcDbBlockBegin
  2
BLOCK_4
 70
     0
 10
0.0
 20
0.0
 30
0.0
  3
BLOCK_4
  1

  0
LWPOLYLINE
  5
50
330
4C
100
AcDbEntity
  8
CUTLINE
 62
     7
100
AcDbPolyline
 90
        2
 70
     0
 43
0.0
 10
144.1142008103255
 20
-217.8709390731364
 10
173.3782199002318
 20
-219.623459146483
  0
ENDBLK
  5
4F
330
4C
100
AcDbEntity
  8
0
100
AcDbBlockEnd
  0
BLOCK
  5
56
330
54
100
AcDbEntity
  8
0
100
AcDbBlockBegin
  2
BLOCK_5
 70
     0
 10
0.0
 20
0.0
 30
0.0
  3
BLOCK_5
  1

  0
LWPOLYLINE
  5
58
330
54
100
AcDbEntity
  8
CUTLINE
 62
     7
100
AcDbPolyline
 90
        2
 70
     0
 43
0.0
 10
130.9046711912322
 20
-244.043673984128
 10
144.1142008103255
 20
-217.8709390731364
  0
ENDBLK
  5
57
330
54
100
AcDbEntity
  8
0
100
AcDbBlockEnd
  0
BLOCK
  5
5E
330
5C
100
AcDbEntity
  8
0
100
AcDbBlockBegin
  2
BLOCK_6
 70
     0
 10
0.0
 20
0.0
 30
0.0
  3
BLOCK_6
  1

  0
LWPOLYLINE
  5
60
330
5C
100
AcDbEntity
  8
CUTLINE
 62
     7
100
AcDbPolyline
 90
        2
 70
     0
 43
0.0
 10
81.91196829549424
 20
-243.9640922784187
 10
106.4348469785995
 20
-227.8985785020531
  0
ENDBLK
  5
5F
330
5C
100
AcDbEntity
  8
0
100
AcDbBlockEnd
  0
BLOCK
  5
66
330
64
100
AcDbEntity
  8
0
100
AcDbBlockBegin
  2
BLOCK_7
 70
     0
 10
0.0
 20
0.0
 30
0.0
  3
BLOCK_7
  1

  0
LWPOLYLINE
  5
68
330
64
100
AcDbEntity
  8
CUTLINE
 62
     7
100
AcDbPolyline
 90
        2
 70
     0
 43
0.0
 10
106.4348469785995
 20
-227.8985785020531
 10
130.9046711912322
 20
-244.043673984128
  0
ENDBLK
  5
67
330
64
100
AcDbEntity
  8
0
100
AcDbBlockEnd
  0
BLOCK
  5
6E
330
6C
100
AcDbEntity
  8
0
100
AcDbBlockBegin
  2
BLOCK_8
 70
     0
 10
0.0
 20
0.0
 30
0.0
  3
BLOCK_8
  1

  0
LWPOLYLINE
  5
70
330
6C
100
AcDbEntity
  8
CUTLINE
 62
     7
100
AcDbPolyline
 90
        2
 70
     0
 43
0.0
 10
68.78804929920922
 20
-217.7486381834101
 10
81.91196829549424
 20
-243.9640922784187
  0
ENDBLK
  5
6F
330
6C
100
AcDbEntity
  8
0
100
AcDbBlockEnd
  0
BLOCK
  5
76
330
74
100
AcDbEntity
  8
0
100
AcDbBlockBegin
  2
BLOCK_9
 70
     0
 10
0.0
 20
0.0
 30
0.0
  3
BLOCK_9
  1

  0
LWPOLYLINE
  5
78
330
74
100
AcDbEntity
  8
CUTLINE
 62
     7
100
AcDbPolyline
 90
        2
 70
     0
 43
0.0
 10
39.51800129220383
 20
-219.4053846022667
 10
68.78804929920922
 20
-217.7486381834101
  0
ENDBLK
  5
77
330
74
100
AcDbEntity
  8
0
100
AcDbBlockEnd
  0
BLOCK
  5
7E
330
7C
100
AcDbEntity
  8
0
100
AcDbBlockBegin
  2
BLOCK_10
 70
     0
 10
0.0
 20
0.0
 30
0.0
  3
BLOCK_10
  1

  0
LWPOLYLINE
  5
80
330
7C
100
AcDbEntity
  8
CUTLINE
 62
     7
100
AcDbPolyline
 90
        2
 70
     0
 43
0.0
 10
41.2555352001896
 20
-190.1399874741664
 10
39.51800129220383
 20
-219.4053846022667
  0
ENDBLK
  5
7F
330
7C
100
AcDbEntity
  8
0
100
AcDbBlockEnd
  0
BLOCK
  5
86
330
84
100
AcDbEntity
  8
0
100
AcDbBlockBegin
  2
BLOCK_11
 70
     0
 10
0.0
 20
0.0
 30
0.0
  3
BLOCK_11
  1

  0
LWPOLYLINE
  5
88
330
84
100
AcDbEntity
  8
CUTLINE
 62
     7
100
AcDbPolyline
 90
        2
 70
     0
 43
0.0
 10
15.07591009822755
 20
-176.944238237014
 10
41.2555352001896
 20
-190.1399874741664
  0
ENDBLK
  5
87
330
84
100
AcDbEntity
  8
0
100
AcDbBlockEnd
  0
BLOCK
  5
8E
330
8C
100
AcDbEntity
  8
0
100
AcDbBlockBegin
  2
BLOCK_12
 70
     0
 10
0.0
 20
0.0
 30
0.0
  3
BLOCK_12
  1

  0
LWPOLYLINE
  5
90
330
8C
100
AcDbEntity
  8
CUTLINE
 62
     7
100
AcDbPolyline
 90
        2
 70
     0
 43
0.0
 10
181.9055202453222
 20
-152.5584743542215
 10
198.0140977152534
 20
-128.0633286897724
  0
ENDBLK
  5
8F
330
8C
100
AcDbEntity
  8
0
100
AcDbBlockEnd
  0
BLOCK
  5
96
330
94
100
AcDbEntity
  8
0
100
AcDbBlockBegin
  2
BLOCK_13
 70
     0
 10
0.0
 20
0.0
 30
0.0
  3
BLOCK_13
  1

  0
LWPOLYLINE
  5
98
330
94
100
AcDbEntity
  8
CUTLINE
 62
     7
100
AcDbPolyline
 90
        2
 70
     0
 43
0.0
 10
198.0140977152534
 20
-128.0633286897724
 10
171.8213812504474
 20
-114.8941066878563
  0
ENDBLK
  5
97
330
94
100
AcDbEntity
  8
0
100
AcDbBlockEnd
  0
BLOCK
  5
9E
330
9C
100
AcDbEntity
  8
0
100
AcDbBlockBegin
  2
BLOCK_14
 70
     0
 10
0.0
 20
0.0
 30
0.0
  3
BLOCK_14
  1

  0
LWPOLYLINE
  5
A0
330
9C
100
AcDbEntity
  8
CUTLINE
 62
     7
100
AcDbPolyline
 90
        2
 70
     0
 43
0.0
 10
171.8213812504474
 20
-114.8941066878563
 10
173.5284260633886
 20
-85.62715926678766
  0
ENDBLK
  5
9F
330
9C
100
AcDbEntity
  8
0
100
AcDbBlockEnd
  0
BLOCK
  5
A6
330
A4
100
AcDbEntity
  8
0
100
AcDbBlockBegin
  2
BLOCK_15
 70
     0
 10
0.0
 20
0.0
 30
0.0
  3
BLOCK_15
  1

  0
LWPOLYLINE
  5
A8
330
A4
100
AcDbEntity
  8
CUTLINE
 62
     7
100
AcDbPolyline
 90
        2
 70
     0
 43
0.0
 10
173.5284260633886
 20
-85.62715926678766
 10
144.2602728589001
 20
-87.31370576159172
  0
ENDBLK
  5
A7
330
A4
100
AcDbEntity
  8
0
100
AcDbBlockEnd
  0
BLOCK
  5
AE
330
AC
100
AcDbEntity
  8
0
100
AcDbBlockBegin
  2
BLOCK_16
 70
     0
 10
0.0
 20
0.0
 30
0.0
  3
BLOCK_16
  1

  0
LWPOLYLINE
  5
B0
330
AC
100
AcDbEntity
  8
CUTLINE
 62
     7
100
AcDbPolyline
 90
        2
 70
     0
 43
0.0
 10
144.2602728589001
 20
-87.31370576159172
 10
131.1099988821531
 20
-61.11134302942703
  0
ENDBLK
  5
AF
330
AC
100
AcDbEntity
  8
0
100
AcDbBlockEnd
  0
BLOCK
  5
B6
330
B4
100
AcDbEntity
  8
0
100
AcDbBlockBegin
  2
BLOCK_17
 70
     0
 10
0.0
 20
0.0
 30
0.0
  3
BLOCK_17
  1

  0
LWPOLYLINE
  5
B8
330
B4
100
AcDbEntity
  8
CUTLINE
 62
     7
100
AcDbPolyline
 90
        2
 70
     0
 43
0.0
 10
131.1099988821531
 20
-61.11134302942703
 10
106.6036566573769
 20
-77.20235051238344
  0
ENDBLK
  5
B7
330
B4
100
AcDbEntity
  8
0
100
AcDbBlockEnd
  0
BLOCK
  5
BE
330
BC
100
AcDbEntity
  8
0
100
AcDbBlockBegin
  2
BLOCK_18
 70
     0
 10
0.0
 20
0.0
 30
0.0
  3
BLOCK_18
  1

  0
LWPOLYLINE
  5
C0
330
BC
100
AcDbEntity
  8
CUTLINE
 62
     7
100
AcDbPolyline
 90
        2
 70
     0
 43
0.0
 10
106.6036566573769
 20
-77.20235051238344
 10
82.11677922209233
 20
-61.08171520825388
  0
ENDBLK
  5
BF
330
BC
100
AcDbEntity
  8
0
100
AcDbBlockEnd
  0
BLOCK
  5
C6
330
C4
100
AcDbEntity
  8
0
100
AcDbBlockBegin
  2
BLOCK_19
 70
     0
 10
0.0
 20
0.0
 30
0.0
  3
BLOCK_19
  1

  0
LWPOLYLINE
  5
C8
330
C4
100
AcDbEntity
  8
CUTLINE
 62
     7
100
AcDbPolyline
 90
        2
 70
     0
 43
0.0
 10
82.11677922209233
 20
-61.08171520825388
 10
68.93446585733236
 20
-87.26736922731509
  0
ENDBLK
  5
C7
330
C4
100
AcDbEntity
  8
0
100
AcDbBlockEnd
  0
BLOCK
  5
CE
330
CC
100
AcDbEntity
  8
0
100
AcDbBlockBegin
  2
BLOCK_20
 70
     0
 10
0.0
 20
0.0
 30
0.0
  3
BLOCK_20
  1

  0
LWPOLYLINE
  5
D0
330
CC
100
AcDbEntity
  8
CUTLINE
 62
     7
100
AcDbPolyline
 90
        2
 70
     0
 43
0.0
 10
68.93446585733236
 20
-87.26736922731509
 10
39.66786294581221
 20
-85.54516599423871
  0
ENDBLK
  5
CF
330
CC
100
AcDbEntity
  8
0
100
AcDbBlockEnd
  0
BLOCK
  5
D6
330
D4
100
AcDbEntity
  8
0
100
AcDbBlockBegin
  2
BLOCK_21
 70
     0
 10
0.0
 20
0.0
 30
0.0
  3
BLOCK_21
  1

  0
LWPOLYLINE
  5
D8
330
D4
100
AcDbEntity
  8
CUTLINE
 62
     7
100
AcDbPolyline
 90
        2
 70
     0
 43
0.0
 10
39.66786294581221
 20
-85.54516599423871
 10
41.33976778480395
 20
-114.8143527273728
  0
ENDBLK
  5
D7
330
D4
100
AcDbEntity
  8
0
100
AcDbBlockEnd
  0
BLOCK
  5
DE
330
DC
100
AcDbEntity
  8
0
100
AcDbBlockBegin
  2
BLOCK_22
 70
     0
 10
0.0
 20
0.0
 30
0.0
  3
BLOCK_22
  1

  0
LWPOLYLINE
  5
E0
330
DC
100
AcDbEntity
  8
CUTLINE
 62
     7
100
AcDbPolyline
 90
        2
 70
     0
 43
0.0
 10
41.33976778480395
 20
-114.8143527273728
 10
15.13103162599155
 20
-127.9511908317275
  0
ENDBLK
  5
DF
330
DC
100
AcDbEntity
  8
0
100
AcDbBlockEnd
  0
BLOCK
  5
E6
330
E4
100
AcDbEntity
  8
0
100
AcDbBlockBegin
  2
BLOCK_23
 70
     0
 10
0.0
 20
0.0
 30
0.0
  3
BLOCK_23
  1

  0
LWPOLYLINE
  5
E8
330
E4
100
AcDbEntity
  8
CUTLINE
 62
     7
100
AcDbPolyline
 90
        2
 70
     0
 43
0.0
 10
31.20894774610402
 20
-152.4658012856683
 10
15.07591009822755
 20
-176.944238237014
  0
ENDBLK
  5
E7
330
E4
100
AcDbEntity
  8
0
100
AcDbBlockEnd
  0
BLOCK
  5
EE
330
EC
100
AcDbEntity
  8
0
100
AcDbBlockBegin
  2
BLOCK_24
 70
     0
 10
0.0
 20
0.0
 30
0.0
  3
BLOCK_24
  1

  0
LWPOLYLINE
  5
F0
330
EC
100
AcDbEntity
  8
CUTLINE
 62
     7
100
AcDbPolyline
 90
        2
 70
     0
 43
0.0
 10
15.13103162599155
 20
-127.9511908317275
 10
31.20894774610402
 20
-152.4658012856683
  0
ENDBLK
  5
EF
330
EC
100
AcDbEntity
  8
0
100
AcDbBlockEnd
  0
BLOCK
  5
F6
330
F4
100
AcDbEntity
  8
0
100
AcDbBlockBegin
  2
BLOCK_25
 70
     0
 10
0.0
 20
0.0
 30
0.0
  3
BLOCK_25
  1

  0
LWPOLYLINE
  5
F8
330
F4
100
AcDbEntity
  8
CUTLINE
 62
     7
100
AcDbPolyline
 90
        2
 70
     0
 43
0.0
 10
198.008585562477
 20
-177.055859330736
 10
181.9055202453222
 20
-152.5584743542215
  0
ENDBLK
  5
F7
330
F4
100
AcDbEntity
  8
0
100
AcDbBlockEnd
  0
BLOCK
  5
FF
330
FD
100
AcDbEntity
  8
0
100
AcDbBlockBegin
  2
BLOCK_26
 70
     0
 10
0.0
 20
0.0
 30
0.0
  3
BLOCK_26
  1

  0
LWPOLYLINE
  5
101
330
FD
100
AcDbEntity
  8
valley_fold
  6
AI-LINETYPE-1
 62
     7
100
AcDbPolyline
 90
        2
 70
     0
 43
0.0
 10
92.35611976857763
 20
-205.2243380563328
 10
84.49682343807719
 20
-234.3753580143228
  0
ENDBLK
  5
100
330
FD
100
AcDbEntity
  8
0
100
AcDbBlockEnd
  0
BLOCK
  5
108
330
106
100
AcDbEntity
  8
0
100
AcDbBlockBegin
  2
BLOCK_27
 70
     0
 10
0.0
 20
0.0
 30
0.0
  3
BLOCK_27
  1

  0
LWPOLYLINE
  5
10A
330
106
100
AcDbEntity
  8
valley_fold
  6
AI-LINETYPE-2
 62
     7
100
AcDbPolyline
 90
        2
 70
     0
 43
0.0
 10
106.4865234108784
 20
-195.967021977918
 10
92.35611976857763
 20
-205.2243380563328
  0
ENDBLK
  5
109
330
106
100
AcDbEntity
  8
0
100
AcDbBlockEnd
  0
BLOCK
  5
111
330
10F
100
AcDbEntity
  8
0
100
AcDbBlockBegin
  2
BLOCK_28
 70
     0
 10
0.0
 20
0.0
 30
0.0
  3
BLOCK_28
  1

  0
LWPOLYLINE
  5
113
330
10F
100
AcDbEntity
  8
valley_fold
  6
AI-LINETYPE-3
 62
     7
100
AcDbPolyline
 90
        2
 70
     0
 43
0.0
 10
128.3501328889194
 20
-234.4473605099646
 10
120.5866102129089
 20
-205.2708468453837
  0
ENDBLK
  5
112
330
10F
100
AcDbEntity
  8
0
100
AcDbBlockEnd
  0
BLOCK
  5
11A
330
118
100
AcDbEntity
  8
0
100
AcDbBlockBegin
  2
BLOCK_29
 70
     0
 10
0.0
 20
0.0
 30
0.0
  3
BLOCK_29
  1

  0
LWPOLYLINE
  5
11C
330
118
100
AcDbEntity
  8
valley_fold
  6
AI-LINETYPE-4
 62
     7
100
AcDbPolyline
 90
        2
 70
     0
 43
0.0
 10
92.35611976857763
 20
-205.2243380563328
 10
84.79447968800277
 20
-190.1189723917064
  0
ENDBLK
  5
11B
330
118
100
AcDbEntity
  8
0
100
AcDbBlockEnd
  0
BLOCK
  5
123
330
121
100
AcDbEntity
  8
0
100
AcDbBlockBegin
  2
BLOCK_30
 70
     0
 10
0.0
 20
0.0
 30
0.0
  3
BLOCK_30
  1

  0
LWPOLYLINE
  5
125
330
121
100
AcDbEntity
  8
valley_fold
  6
AI-LINETYPE-5
 62
     7
100
AcDbPolyline
 90
        2
 70
     0
 43
0.0
 10
67.92832572086514
 20
-191.0732638411206
 10
52.9533569203554
 20
-206.0070637505816
  0
ENDBLK
  5
124
330
121
100
AcDbEntity
  8
0
100
AcDbBlockEnd
  0
BLOCK
  5
12C
330
12A
100
AcDbEntity
  8
0
100
AcDbBlockBegin
  2
BLOCK_31
 70
     0
 10
0.0
 20
0.0
 30
0.0
  3
BLOCK_31
  1

  0
LWPOLYLINE
  5
12E
330
12A
100
AcDbEntity
  8
valley_fold
  6
AI-LINETYPE-6
 62
     7
100
AcDbPolyline
 90
        2
 70
     0
 43
0.0
 10
84.79447968800277
 20
-190.1189723917064
 10
67.92832572086514
 20
-191.0732638411206
  0
ENDBLK
  5
12D
330
12A
100
AcDbEntity
  8
0
100
AcDbBlockEnd
  0
BLOCK
  5
135
330
133
100
AcDbEntity
  8
0
100
AcDbBlockBegin
  2
BLOCK_32
 70
     0
 10
0.0
 20
0.0
 30
0.0
  3
BLOCK_32
  1

  0
LWPOLYLINE
  5
137
330
133
100
AcDbEntity
  8
valley_fold
  6
AI-LINETYPE-7
 62
     7
100
AcDbPolyline
 90
        2
 70
     0
 43
0.0
 10
67.92832572086514
 20
-191.0732638411206
 10
68.92929821410447
 20
-174.2105549694682
  0
ENDBLK
  5
136
330
133
100
AcDbEntity
  8
0
100
AcDbBlockEnd
  0
BLOCK
  5
13E
330
13C
100
AcDbEntity
  8
0
100
AcDbBlockBegin
  2
BLOCK_33
 70
     0
 10
0.0
 20
0.0
 30
0.0
  3
BLOCK_33
  1

  0
LWPOLYLINE
  5
140
330
13C
100
AcDbEntity
  8
valley_fold
  6
AI-LINETYPE-8
 62
     7
100
AcDbPolyline
 90
        2
 70
     0
 43
0.0
 10
53.84443086761528
 20
-166.6068847239733
 10
44.82000324400332
 20
-169.0129394108718
  0
ENDBLK
  5
13F
330
13C
100
AcDbEntity
  8
0
100
AcDbBlockEnd
  0
BLOCK
  5
147
330
145
100
AcDbEntity
  8
0
100
AcDbBlockBegin
  2
BLOCK_34
 70
     0
 10
0.0
 20
0.0
 30
0.0
  3
BLOCK_34
  1

  0
LWPOLYLINE
  5
149
330
145
100
AcDbEntity
  8
valley_fold
  6
AI-LINETYPE-9
 62
     7
100
AcDbPolyline
 90
        2
 70
     0
 43
0.0
 10
68.92929821410447
 20
-174.2105549694682
 10
53.84443086761528
 20
-166.6068847239733
  0
ENDBLK
  5
148
330
145
100
AcDbEntity
  8
0
100
AcDbBlockEnd
  0
BLOCK
  5
150
330
14E
100
AcDbEntity
  8
0
100
AcDbBlockBegin
  2
BLOCK_35
 70
     0
 10
0.0
 20
0.0
 30
0.0
  3
BLOCK_35
  1

  0
LWPOLYLINE
  5
152
330
14E
100
AcDbEntity
  8
valley_fold
  6
AI-LINETYPE-10
 62
     7
100
AcDbPolyline
 90
        2
 70
     0
 43
0.0
 10
53.84443086761528
 20
-166.6068847239733
 10
63.14050427023918
 20
-152.5019747882634
  0
ENDBLK
  5
151
330
14E
100
AcDbEntity
  8
0
100
AcDbBlockEnd
  0
BLOCK
  5
159
330
157
100
AcDbEntity
  8
0
100
AcDbBlockBegin
  2
BLOCK_36
 70
     0
 10
0.0
 20
0.0
 30
0.0
  3
BLOCK_36
  1

  0
LWPOLYLINE
  5
15B
330
157
100
AcDbEntity
  8
valley_fold
  6
AI-LINETYPE-11
 62
     7
100
AcDbPolyline
 90
        2
 70
     0
 43
0.0
 10
63.14050427023918
 20
-152.5019747882634
 10
54.79303790947883
 20
-139.7744140275564
  0
ENDBLK
  5
15A
330
157
100
AcDbEntity
  8
0
100
AcDbBlockEnd
  0
BLOCK
  5
162
330
160
100
AcDbEntity
  8
0
100
AcDbBlockBegin
  2
BLOCK_37
 70
     0
 10
0.0
 20
0.0
 30
0.0
  3
BLOCK_37
  1

  0
LWPOLYLINE
  5
164
330
160
100
AcDbEntity
  8
valley_fold
  6
AI-LINETYPE-12
 62
     7
100
AcDbPolyline
 90
        2
 70
     0
 43
0.0
 10
63.14050427023918
 20
-152.5019747882634
 10
66.37252059972631
 20
-152.5050753742001
  0
ENDBLK
  5
163
330
160
100
AcDbEntity
  8
0
100
AcDbBlockEnd
  0
BLOCK
  5
16B
330
169
100
AcDbEntity
  8
0
100
AcDbBlockBegin
  2
BLOCK_38
 70
     0
 10
0.0
 20
0.0
 30
0.0
  3
BLOCK_38
  1

  0
LWPOLYLINE
  5
16D
330
169
100
AcDbEntity
  8
valley_fold
  6
AI-LINETYPE-13
 62
     7
100
AcDbPolyline
 90
        2
 70
     0
 43
0.0
 10
68.92929821410447
 20
-174.2105549694682
 10
75.39160832533612
 20
-170.4901963549469
  0
ENDBLK
  5
16C
330
169
100
AcDbEntity
  8
0
100
AcDbBlockEnd
  0
BLOCK
  5
174
330
172
100
AcDbEntity
  8
0
100
AcDbBlockBegin
  2
BLOCK_39
 70
     0
 10
0.0
 20
0.0
 30
0.0
  3
BLOCK_39
  1

  0
LWPOLYLINE
  5
176
330
172
100
AcDbEntity
  8
valley_fold
  6
AI-LINETYPE-14
 62
     7
100
AcDbPolyline
 90
        2
 70
     0
 43
0.0
 10
84.79447968800277
 20
-190.1189723917064
 10
89.81966821756245
 20
-181.4435329407502
  0
ENDBLK
  5
175
330
172
100
AcDbEntity
  8
0
100
AcDbBlockEnd
  0
BLOCK
  5
17D
330
17B
100
AcDbEntity
  8
0
100
AcDbBlockBegin
  2
BLOCK_40
 70
     0
 10
0.0
 20
0.0
 30
0.0
  3
BLOCK_40
  1

  0
LWPOLYLINE
  5
17F
330
17B
100
AcDbEntity
  8
valley_fold
  6
AI-LINETYPE-15
 62
     7
100
AcDbPolyline
 90
        2
 70
     0
 43
0.0
 10
152.2814886772074
 20
-179.0691731323161
 10
171.7359428824132
 20
-190.3525498656063
  0
ENDBLK
  5
17E
330
17B
100
AcDbEntity
  8
0
100
AcDbBlockEnd
  0
BLOCK
  5
186
330
184
100
AcDbEntity
  8
0
100
AcDbBlockBegin
  2
BLOCK_41
 70
     0
 10
0.0
 20
0.0
 30
0.0
  3
BLOCK_41
  1

  0
LWPOLYLINE
  5
188
330
184
100
AcDbEntity
  8
valley_fold
  6
AI-LINETYPE-16
 62
     7
100
AcDbPolyline
 90
        2
 70
     0
 43
0.0
 10
135.7484754434934
 20
-203.3212673102808
 10
144.1142008103255
 20
-217.8709390731364
  0
ENDBLK
  5
187
330
184
100
AcDbEntity
  8
0
100
AcDbBlockEnd
  0
BLOCK
  5
18F
330
18D
100
AcDbEntity
  8
0
100
AcDbBlockBegin
  2
BLOCK_42
 70
     0
 10
0.0
 20
0.0
 30
0.0
  3
BLOCK_42
  1

  0
LWPOLYLINE
  5
191
330
18D
100
AcDbEntity
  8
valley_fold
  6
AI-LINETYPE-17
 62
     7
100
AcDbPolyline
 90
        2
 70
     0
 43
0.0
 10
106.4348469785995
 20
-227.8985785020531
 10
106.4582736278993
 20
-213.5242620993967
  0
ENDBLK
  5
190
330
18D
100
AcDbEntity
  8
0
100
AcDbBlockEnd
  0
BLOCK
  5
198
330
196
100
AcDbEntity
  8
0
100
AcDbBlockBegin
  2
BLOCK_43
 70
     0
 10
0.0
 20
0.0
 30
0.0
  3
BLOCK_43
  1

  0
LWPOLYLINE
  5
19A
330
196
100
AcDbEntity
  8
valley_fold
  6
AI-LINETYPE-18
 62
     7
100
AcDbPolyline
 90
        2
 70
     0
 43
0.0
 10
77.20097247418934
 20
-203.2261826748879
 10
68.78804929920922
 20
-217.7486381834101
  0
ENDBLK
  5
199
330
196
100
AcDbEntity
  8
0
100
AcDbBlockEnd
  0
BLOCK
  5
1A1
330
19F
100
AcDbEntity
  8
0
100
AcDbBlockBegin
  2
BLOCK_44
 70
     0
 10
0.0
 20
0.0
 30
0.0
  3
BLOCK_44
  1

  0
LWPOLYLINE
  5
1A3
330
19F
100
AcDbEntity
  8
valley_fold
  6
AI-LINETYPE-19
 62
     7
100
AcDbPolyline
 90
        2
 70
     0
 43
0.0
 10
60.74702418186186
 20
-178.9200004978047
 10
41.2555352001896
 20
-190.1399874741664
  0
ENDBLK
  5
1A2
330
19F
100
AcDbEntity
  8
0
100
AcDbBlockEnd
  0
BLOCK
  5
1AA
330
1A8
100
AcDbEntity
  8
0
100
AcDbBlockBegin
  2
BLOCK_45
 70
     0
 10
0.0
 20
0.0
 30
0.0
  3
BLOCK_45
  1

  0
LWPOLYLINE
  5
1AC
330
1A8
100
AcDbEntity
  8
valley_fold
  6
AI-LINETYPE-20
 62
     7
100
AcDbPolyline
 90
        2
 70
     0
 43
0.0
 10
153.206496814997
 20
-152.5553737682848
 10
181.9055202453222
 20
-152.5584743542215
  0
ENDBLK
  5
1AB
330
1A8
100
AcDbEntity
  8
0
100
AcDbBlockEnd
  0
BLOCK
  5
1B3
330
1B1
100
AcDbEntity
  8
0
100
AcDbBlockBegin
  2
BLOCK_46
 70
     0
 10
0.0
 20
0.0
 30
0.0
  3
BLOCK_46
  1

  0
LWPOLYLINE
  5
1B5
330
1B1
100
AcDbEntity
  8
valley_fold
  6
AI-LINETYPE-21
 62
     7
100
AcDbPolyline
 90
        2
 70
     0
 43
0.0
 10
171.8213812504474
 20
-114.8941066878563
 10
144.1855142868703
 20
-130.8910630640654
  0
ENDBLK
  5
1B4
330
1B1
100
AcDbEntity
  8
0
100
AcDbBlockEnd
  0
BLOCK
  5
1BC
330
1BA
100
AcDbEntity
  8
0
100
AcDbBlockBegin
  2
BLOCK_47
 70
     0
 10
0.0
 20
0.0
 30
0.0
  3
BLOCK_47
  1

  0
LWPOLYLINE
  5
1BE
330
1BA
100
AcDbEntity
  8
valley_fold
  6
AI-LINETYPE-22
 62
     7
100
AcDbPolyline
 90
        2
 70
     0
 43
0.0
 10
144.2602728589001
 20
-87.31370576159172
 10
128.3211940868433
 20
-114.9826456418273
  0
ENDBLK
  5
1BD
330
1BA
100
AcDbEntity
  8
0
100
AcDbBlockEnd
  0
BLOCK
  5
1C5
330
1C3
100
AcDbEntity
  8
0
100
AcDbBlockBegin
  2
BLOCK_48
 70
     0
 10
0.0
 20
0.0
 30
0.0
  3
BLOCK_48
  1

  0
LWPOLYLINE
  5
1C7
330
1C3
100
AcDbEntity
  8
valley_fold
  6
AI-LINETYPE-23
 62
     7
100
AcDbPolyline
 90
        2
 70
     0
 43
0.0
 10
106.6036566573769
 20
-77.20235051238344
 10
106.5843641226595
 20
-109.1335625269701
  0
ENDBLK
  5
1C6
330
1C3
100
AcDbEntity
  8
0
100
AcDbBlockEnd
  0
BLOCK
  5
1CE
330
1CC
100
AcDbEntity
  8
0
100
AcDbBlockBegin
  2
BLOCK_49
 70
     0
 10
0.0
 20
0.0
 30
0.0
  3
BLOCK_49
  1

  0
LWPOLYLINE
  5
1D0
330
1CC
100
AcDbEntity
  8
valley_fold
  6
AI-LINETYPE-24
 62
     7
100
AcDbPolyline
 90
        2
 70
     0
 43
0.0
 10
68.93446585733236
 20
-87.26736922731509
 10
84.8788845273914
 20
-114.9333807763882
  0
ENDBLK
  5
1CF
330
1CC
100
AcDbEntity
  8
0
100
AcDbBlockEnd
  0
BLOCK
  5
1D7
330
1D5
100
AcDbEntity
  8
0
100
AcDbBlockBegin
  2
BLOCK_50
 70
     0
 10
0.0
 20
0.0
 30
0.0
  3
BLOCK_50
  1

  0
LWPOLYLINE
  5
1D9
330
1D5
100
AcDbEntity
  8
valley_fold
  6
AI-LINETYPE-25
 62
     7
100
AcDbPolyline
 90
        2
 70
     0
 43
0.0
 10
41.33976778480395
 20
-114.8143527273728
 10
68.97804631522078
 20
-130.8063137151282
  0
ENDBLK
  5
1D8
330
1D5
100
AcDbEntity
  8
0
100
AcDbBlockEnd
  0
BLOCK
  5
1E0
330
1DE
100
AcDbEntity
  8
0
100
AcDbBlockBegin
  2
BLOCK_51
 70
     0
 10
0.0
 20
0.0
 30
0.0
  3
BLOCK_51
  1

  0
LWPOLYLINE
  5
1E2
330
1DE
100
AcDbEntity
  8
valley_fold
  6
AI-LINETYPE-26
 62
     7
100
AcDbPolyline
 90
        2
 70
     0
 43
0.0
 10
59.90866019552631
 20
-152.4985296927782
 10
31.20894774610402
 20
-152.4658012856683
  0
ENDBLK
  5
1E1
330
1DE
100
AcDbEntity
  8
0
100
AcDbBlockEnd
  0
BLOCK
  5
1E9
330
1E7
100
AcDbEntity
  8
0
100
AcDbBlockBegin
  2
BLOCK_52
 70
     0
 10
0.0
 20
0.0
 30
0.0
  3
BLOCK_52
  1

  0
LWPOLYLINE
  5
1EB
330
1E7
100
AcDbEntity
  8
valley_fold
  6
AI-LINETYPE-27
 62
     7
100
AcDbPolyline
 90
        2
 70
     0
 43
0.0
 10
106.5574923778745
 20
-152.5505506346054
 10
106.5767849125919
 20
-121.7090223220033
  0
ENDBLK
  5
1EA
330
1E7
100
AcDbEntity
  8
0
100
AcDbBlockEnd
  0
BLOCK
  5
1F2
330
1F0
100
AcDbEntity
  8
0
100
AcDbBlockBegin
  2
BLOCK_53
 70
     0
 10
0.0
 20
0.0
 30
0.0
  3
BLOCK_53
  1

  0
LWPOLYLINE
  5
1F4
330
1F0
100
AcDbEntity
  8
valley_fold
  6
AI-LINETYPE-28
 62
     7
100
AcDbPolyline
 90
        2
 70
     0
 43
0.0
 10
106.5767849125919
 20
-121.7090223220033
 10
95.04432777571807
 20
-109.4598130694232
  0
ENDBLK
  5
1F3
330
1F0
100
AcDbEntity
  8
0
100
AcDbBlockEnd
  0
BLOCK
  5
1FB
330
1F9
100
AcDbEntity
  8
0
100
AcDbBlockBegin
  2
BLOCK_54
 70
     0
 10
0.0
 20
0.0
 30
0.0
  3
BLOCK_54
  1

  0
LWPOLYLINE
  5
1FD
330
1F9
100
AcDbEntity
  8
valley_fold
  6
AI-LINETYPE-29
 62
     7
100
AcDbPolyline
 90
        2
 70
     0
 43
0.0
 10
118.1688422013606
 20
-109.4861680498854
 10
106.5767849125919
 20
-121.7090223220033
  0
ENDBLK
  5
1FC
330
1F9
100
AcDbEntity
  8
0
100
AcDbBlockEnd
  0
BLOCK
  5
204
330
202
100
AcDbEntity
  8
0
100
AcDbBlockBegin
  2
BLOCK_55
 70
     0
 10
0.0
 20
0.0
 30
0.0
  3
BLOCK_55
  1

  0
LWPOLYLINE
  5
206
330
202
100
AcDbEntity
  8
valley_fold
  6
AI-LINETYPE-30
 62
     7
100
AcDbPolyline
 90
        2
 70
     0
 43
0.0
 10
106.5574923778745
 20
-152.5505506346054
 10
121.2205077821949
 20
-127.299895530241
  0
ENDBLK
  5
205
330
202
100
AcDbEntity
  8
0
100
AcDbBlockEnd
  0
BLOCK
  5
20D
330
20B
100
AcDbEntity
  8
0
100
AcDbBlockBegin
  2
BLOCK_56
 70
     0
 10
0.0
 20
0.0
 30
0.0
  3
BLOCK_56
  1

  0
LWPOLYLINE
  5
20F
330
20B
100
AcDbEntity
  8
valley_fold
  6
AI-LINETYPE-31
 62
     7
100
AcDbPolyline
 90
        2
 70
     0
 43
0.0
 10
121.2205077821949
 20
-127.299895530241
 10
118.1915798315632
 20
-109.4920247122103
  0
ENDBLK
  5
20E
330
20B
100
AcDbEntity
  8
0
100
AcDbBlockEnd
  0
BLOCK
  5
216
330
214
100
AcDbEntity
  8
0
100
AcDbBlockBegin
  2
BLOCK_57
 70
     0
 10
0.0
 20
0.0
 30
0.0
  3
BLOCK_57
  1

  0
LWPOLYLINE
  5
218
330
214
100
AcDbEntity
  8
valley_fold
  6
AI-LINETYPE-32
 62
     7
100
AcDbPolyline
 90
        2
 70
     0
 43
0.0
 10
133.5818548928198
 20
-125.6569294933254
 10
121.2205077821949
 20
-127.299895530241
  0
ENDBLK
  5
217
330
214
100
AcDbEntity
  8
0
100
AcDbBlockEnd
  0
BLOCK
  5
21F
330
21D
100
AcDbEntity
  8
0
100
AcDbBlockBegin
  2
BLOCK_58
 70
     0
 10
0.0
 20
0.0
 30
0.0
  3
BLOCK_58
  1

  0
LWPOLYLINE
  5
221
330
21D
100
AcDbEntity
  8
valley_fold
  6
AI-LINETYPE-33
 62
     7
100
AcDbPolyline
 90
        2
 70
     0
 43
0.0
 10
106.5574923778745
 20
-152.5505506346054
 10
84.49423961646324
 20
-139.7837157853666
  0
ENDBLK
  5
220
330
21D
100
AcDbEntity
  8
0
100
AcDbBlockEnd
  0
BLOCK
  5
228
330
226
100
AcDbEntity
  8
0
100
AcDbBlockBegin
  2
BLOCK_59
 70
     0
 10
0.0
 20
0.0
 30
0.0
  3
BLOCK_59
  1

  0
LWPOLYLINE
  5
22A
330
226
100
AcDbEntity
  8
valley_fold
  6
AI-LINETYPE-34
 62
     7
100
AcDbPolyline
 90
        2
 70
     0
 43
0.0
 10
84.49423961646324
 20
-139.7837157853666
 10
77.14120006752025
 20
-144.6350992476954
  0
ENDBLK
  5
229
330
226
100
AcDbEntity
  8
0
100
AcDbBlockEnd
  0
BLOCK
  5
231
330
22F
100
AcDbEntity
  8
0
100
AcDbBlockBegin
  2
BLOCK_60
 70
     0
 10
0.0
 20
0.0
 30
0.0
  3
BLOCK_60
  1

  0
LWPOLYLINE
  5
233
330
22F
100
AcDbEntity
  8
valley_fold
  6
AI-LINETYPE-35
 62
     7
100
AcDbPolyline
 90
        2
 70
     0
 43
0.0
 10
79.62287460031996
 20
-125.5685627941287
 10
84.49423961646324
 20
-139.7837157853666
  0
ENDBLK
  5
232
330
22F
100
AcDbEntity
  8
0
100
AcDbBlockEnd
  0
BLOCK
  5
23A
330
238
100
AcDbEntity
  8
0
100
AcDbBlockBegin
  2
BLOCK_61
 70
     0
 10
0.0
 20
0.0
 30
0.0
  3
BLOCK_61
  1

  0
LWPOLYLINE
  5
23C
330
238
100
AcDbEntity
  8
valley_fold
  6
AI-LINETYPE-36
 62
     7
100
AcDbPolyline
 90
        2
 70
     0
 43
0.0
 10
106.5574923778745
 20
-152.5505506346054
 10
128.6636365780772
 20
-139.8564073001054
  0
ENDBLK
  5
23B
330
238
100
AcDbEntity
  8
0
100
AcDbBlockEnd
  0
BLOCK
  5
243
330
241
100
AcDbEntity
  8
0
100
AcDbBlockBegin
  2
BLOCK_62
 70
     0
 10
0.0
 20
0.0
 30
0.0
  3
BLOCK_62
  1

  0
LWPOLYLINE
  5
245
330
241
100
AcDbEntity
  8
valley_fold
  6
AI-LINETYPE-37
 62
     7
100
AcDbPolyline
 90
        2
 70
     0
 43
0.0
 10
128.6636365780772
 20
-139.8564073001054
 10
133.5818548928198
 20
-125.6569294933254
  0
ENDBLK
  5
244
330
241
100
AcDbEntity
  8
0
100
AcDbBlockEnd
  0
BLOCK
  5
24C
330
24A
100
AcDbEntity
  8
0
100
AcDbBlockBegin
  2
BLOCK_63
 70
     0
 10
0.0
 20
0.0
 30
0.0
  3
BLOCK_63
  1

  0
LWPOLYLINE
  5
24E
330
24A
100
AcDbEntity
  8
valley_fold
  6
AI-LINETYPE-38
 62
     7
100
AcDbPolyline
 90
        2
 70
     0
 43
0.0
 10
136.0003119234652
 20
-144.7322509403794
 10
128.6636365780772
 20
-139.8564073001054
  0
ENDBLK
  5
24D
330
24A
100
AcDbEntity
  8
0
100
AcDbBlockEnd
  0
BLOCK
  5
255
330
253
100
AcDbEntity
  8
0
100
AcDbBlockBegin
  2
BLOCK_64
 70
     0
 10
0.0
 20
0.0
 30
0.0
  3
BLOCK_64
  1

  0
LWPOLYLINE
  5
257
330
253
100
AcDbEntity
  8
valley_fold
  6
AI-LINETYPE-39
 62
     7
100
AcDbPolyline
 90
        2
 70
     0
 43
0.0
 10
106.5574923778745
 20
-152.5505506346054
 10
106.530276123541
 20
-169.3164523231223
  0
ENDBLK
  5
256
330
253
100
AcDbEntity
  8
0
100
AcDbBlockEnd
  0
BLOCK
  5
25E
330
25C
100
AcDbEntity
  8
0
100
AcDbBlockBegin
  2
BLOCK_65
 70
     0
 10
0.0
 20
0.0
 30
0.0
  3
BLOCK_65
  1

  0
LWPOLYLINE
  5
260
330
25C
100
AcDbEntity
  8
valley_fold
  6
AI-LINETYPE-40
 62
     7
100
AcDbPolyline
 90
        2
 70
     0
 43
0.0
 10
106.530276123541
 20
-169.3164523231223
 10
111.6142035311242
 20
-171.5540418407921
  0
ENDBLK
  5
25F
330
25C
100
AcDbEntity
  8
0
100
AcDbBlockEnd
  0
BLOCK
  5
267
330
265
100
AcDbEntity
  8
0
100
AcDbBlockBegin
  2
BLOCK_66
 70
     0
 10
0.0
 20
0.0
 30
0.0
  3
BLOCK_66
  1

  0
LWPOLYLINE
  5
269
330
265
100
AcDbEntity
  8
valley_fold
  6
AI-LINETYPE-41
 62
     7
100
AcDbPolyline
 90
        2
 70
     0
 43
0.0
 10
101.4384249963418
 20
-171.5375053824629
 10
106.530276123541
 20
-169.3164523231223
  0
ENDBLK
  5
268
330
265
100
AcDbEntity
  8
0
100
AcDbBlockEnd
  0
BLOCK
  5
270
330
26E
100
AcDbEntity
  8
0
100
AcDbBlockBegin
  2
BLOCK_67
 70
     0
 10
0.0
 20
0.0
 30
0.0
  3
BLOCK_67
  1

  0
LWPOLYLINE
  5
272
330
26E
100
AcDbEntity
  8
valley_fold
  6
AI-LINETYPE-42
 62
     7
100
AcDbPolyline
 90
        2
 70
     0
 43
0.0
 10
115.1778103010667
 20
-167.5436061864127
 10
106.5574923778745
 20
-152.5505506346054
  0
ENDBLK
  5
271
330
26E
100
AcDbEntity
  8
0
100
AcDbBlockEnd
  0
BLOCK
  5
279
330
277
100
AcDbEntity
  8
0
100
AcDbBlockBegin
  2
BLOCK_68
 70
     0
 10
0.0
 20
0.0
 30
0.0
  3
BLOCK_68
  1

  0
LWPOLYLINE
  5
27B
330
277
100
AcDbEntity
  8
valley_fold
  6
AI-LINETYPE-43
 62
     7
100
AcDbPolyline
 90
        2
 70
     0
 43
0.0
 10
111.6142035311242
 20
-171.5540418407921
 10
115.1778103010667
 20
-167.5436061864127
  0
ENDBLK
  5
27A
330
277
100
AcDbEntity
  8
0
100
AcDbBlockEnd
  0
BLOCK
  5
282
330
280
100
AcDbEntity
  8
0
100
AcDbBlockBegin
  2
BLOCK_69
 70
     0
 10
0.0
 20
0.0
 30
0.0
  3
BLOCK_69
  1

  0
LWPOLYLINE
  5
284
330
280
100
AcDbEntity
  8
valley_fold
  6
AI-LINETYPE-44
 62
     7
100
AcDbPolyline
 90
        2
 70
     0
 43
0.0
 10
115.1778103010667
 20
-167.5436061864127
 10
121.560538706589
 20
-167.6104410388266
  0
ENDBLK
  5
283
330
280
100
AcDbEntity
  8
0
100
AcDbBlockEnd
  0
BLOCK
  5
28B
330
289
100
AcDbEntity
  8
0
100
AcDbBlockBegin
  2
BLOCK_70
 70
     0
 10
0.0
 20
0.0
 30
0.0
  3
BLOCK_70
  1

  0
LWPOLYLINE
  5
28D
330
289
100
AcDbEntity
  8
valley_fold
  6
AI-LINETYPE-45
 62
     7
100
AcDbPolyline
 90
        2
 70
     0
 43
0.0
 10
106.5574923778745
 20
-152.5505506346054
 10
97.88859860834037
 20
-167.5150118938851
  0
ENDBLK
  5
28C
330
289
100
AcDbEntity
  8
0
100
AcDbBlockEnd
  0
BLOCK
  5
294
330
292
100
AcDbEntity
  8
0
100
AcDbBlockBegin
  2
BLOCK_71
 70
     0
 10
0.0
 20
0.0
 30
0.0
  3
BLOCK_71
  1

  0
LWPOLYLINE
  5
296
330
292
100
AcDbEntity
  8
valley_fold
  6
AI-LINETYPE-46
 62
     7
100
AcDbPolyline
 90
        2
 70
     0
 43
0.0
 10
97.88859860834037
 20
-167.5150118938851
 10
101.4384249963418
 20
-171.5375053824629
  0
ENDBLK
  5
295
330
292
100
AcDbEntity
  8
0
100
AcDbBlockEnd
  0
BLOCK
  5
29D
330
29B
100
AcDbEntity
  8
0
100
AcDbBlockBegin
  2
BLOCK_72
 70
     0
 10
0.0
 20
0.0
 30
0.0
  3
BLOCK_72
  1

  0
LWPOLYLINE
  5
29F
330
29B
100
AcDbEntity
  8
valley_fold
  6
AI-LINETYPE-47
 62
     7
100
AcDbPolyline
 90
        2
 70
     0
 43
0.0
 10
91.50569794804374
 20
-167.560831663839
 10
97.88859860834037
 20
-167.5150118938851
  0
ENDBLK
  5
29E
330
29B
100
AcDbEntity
  8
0
100
AcDbBlockEnd
  0
BLOCK
  5
2A6
330
2A4
100
AcDbEntity
  8
0
100
AcDbBlockBegin
  2
BLOCK_73
 70
     0
 10
0.0
 20
0.0
 30
0.0
  3
BLOCK_73
  1

  0
LWPOLYLINE
  5
2A8
330
2A4
100
AcDbEntity
  8
valley_fold
  6
AI-LINETYPE-48
 62
     7
100
AcDbPolyline
 90
        2
 70
     0
 43
0.0
 10
122.9285861237817
 20
-162.0462673205996
 10
106.5574923778745
 20
-152.5505506346054
  0
ENDBLK
  5
2A7
330
2A4
100
AcDbEntity
  8
0
100
AcDbBlockEnd
  0
BLOCK
  5
2AF
330
2AD
100
AcDbEntity
  8
0
100
AcDbBlockBegin
  2
BLOCK_74
 70
     0
 10
0.0
 20
0.0
 30
0.0
  3
BLOCK_74
  1

  0
LWPOLYLINE
  5
2B1
330
2AD
100
AcDbEntity
  8
valley_fold
  6
AI-LINETYPE-49
 62
     7
100
AcDbPolyline
 90
        2
 70
     0
 43
0.0
 10
121.560538706589
 20
-167.6104410388266
 10
122.9285861237817
 20
-162.0462673205996
  0
ENDBLK
  5
2B0
330
2AD
100
AcDbEntity
  8
0
100
AcDbBlockEnd
  0
BLOCK
  5
2B8
330
2B6
100
AcDbEntity
  8
0
100
AcDbBlockBegin
  2
BLOCK_75
 70
     0
 10
0.0
 20
0.0
 30
0.0
  3
BLOCK_75
  1

  0
LWPOLYLINE
  5
2BA
330
2B6
100
AcDbEntity
  8
valley_fold
  6
AI-LINETYPE-50
 62
     7
100
AcDbPolyline
 90
        2
 70
     0
 43
0.0
 10
122.9285861237817
 20
-162.0462673205996
 10
130.426836447428
 20
-158.9994248734446
  0
ENDBLK
  5
2B9
330
2B6
100
AcDbEntity
  8
0
100
AcDbBlockEnd
  0
BLOCK
  5
2C1
330
2BF
100
AcDbEntity
  8
0
100
AcDbBlockBegin
  2
BLOCK_76
 70
     0
 10
0.0
 20
0.0
 30
0.0
  3
BLOCK_76
  1

  0
LWPOLYLINE
  5
2C3
330
2BF
100
AcDbEntity
  8
valley_fold
  6
AI-LINETYPE-51
 62
     7
100
AcDbPolyline
 90
        2
 70
     0
 43
0.0
 10
106.5574923778745
 20
-152.5505506346054
 10
90.1555650273743
 20
-161.9918348119326
  0
ENDBLK
  5
2C2
330
2BF
100
AcDbEntity
  8
0
100
AcDbBlockEnd
  0
BLOCK
  5
2CA
330
2C8
100
AcDbEntity
  8
0
100
AcDbBlockBegin
  2
BLOCK_77
 70
     0
 10
0.0
 20
0.0
 30
0.0
  3
BLOCK_77
  1

  0
LWPOLYLINE
  5
2CC
330
2C8
100
AcDbEntity
  8
valley_fold
  6
AI-LINETYPE-52
 62
     7
100
AcDbPolyline
 90
        2
 70
     0
 43
0.0
 10
90.1555650273743
 20
-161.9918348119326
 10
91.50569794804374
 20
-167.560831663839
  0
ENDBLK
  5
2CB
330
2C8
100
AcDbEntity
  8
0
100
AcDbBlockEnd
  0
BLOCK
  5
2D3
330
2D1
100
AcDbEntity
  8
0
100
AcDbBlockBegin
  2
BLOCK_78
 70
     0
 10
0.0
 20
0.0
 30
0.0
  3
BLOCK_78
  1

  0
LWPOLYLINE
  5
2D5
330
2D1
100
AcDbEntity
  8
valley_fold
  6
AI-LINETYPE-53
 62
     7
100
AcDbPolyline
 90
        2
 70
     0
 43
0.0
 10
82.66747773540952
 20
-158.9208766963809
 10
90.1555650273743
 20
-161.9918348119326
  0
ENDBLK
  5
2D4
330
2D1
100
AcDbEntity
  8
0
100
AcDbBlockEnd
  0
BLOCK
  5
2DC
330
2DA
100
AcDbEntity
  8
0
100
AcDbBlockBegin
  2
BLOCK_79
 70
     0
 10
0.0
 20
0.0
 30
0.0
  3
BLOCK_79
  1

  0
LWPOLYLINE
  5
2DE
330
2DA
100
AcDbEntity
  8
valley_fold
  6
AI-LINETYPE-54
 62
     7
100
AcDbPolyline
 90
        2
 70
     0
 43
0.0
 10
128.2808864696659
 20
-152.5977484427534
 10
106.5574923778745
 20
-152.5505506346054
  0
ENDBLK
  5
2DD
330
2DA
100
AcDbEntity
  8
0
100
AcDbBlockEnd
  0
BLOCK
  5
2E5
330
2E3
100
AcDbEntity
  8
0
100
AcDbBlockBegin
  2
BLOCK_80
 70
     0
 10
0.0
 20
0.0
 30
0.0
  3
BLOCK_80
  1

  0
LWPOLYLINE
  5
2E7
330
2E3
100
AcDbEntity
  8
valley_fold
  6
AI-LINETYPE-55
 62
     7
100
AcDbPolyline
 90
        2
 70
     0
 43
0.0
 10
130.426836447428
 20
-158.9994248734446
 10
128.2808864696659
 20
-152.5977484427534
  0
ENDBLK
  5
2E6
330
2E3
100
AcDbEntity
  8
0
100
AcDbBlockEnd
  0
BLOCK
  5
2EE
330
2EC
100
AcDbEntity
  8
0
100
AcDbBlockBegin
  2
BLOCK_81
 70
     0
 10
0.0
 20
0.0
 30
0.0
  3
BLOCK_81
  1

  0
LWPOLYLINE
  5
2F0
330
2EC
100
AcDbEntity
  8
valley_fold
  6
AI-LINETYPE-56
 62
     7
100
AcDbPolyline
 90
        2
 70
     0
 43
0.0
 10
135.1569525486761
 20
-145.5914577544007
 10
136.0003119234652
 20
-144.7322509403794
  0
ENDBLK
  5
2EF
330
2EC
100
AcDbEntity
  8
0
100
AcDbBlockEnd
  0
BLOCK
  5
2F7
330
2F5
100
AcDbEntity
  8
0
100
AcDbBlockBegin
  2
BLOCK_82
 70
     0
 10
0.0
 20
0.0
 30
0.0
  3
BLOCK_82
  1

  0
LWPOLYLINE
  5
2F9
330
2F5
100
AcDbEntity
  8
valley_fold
  6
AI-LINETYPE-57
 62
     7
100
AcDbPolyline
 90
        2
 70
     0
 43
0.0
 10
128.2808864696659
 20
-152.5977484427534
 10
135.1569525486761
 20
-145.5914577544007
  0
ENDBLK
  5
2F8
330
2F5
100
AcDbEntity
  8
0
100
AcDbBlockEnd
  0
BLOCK
  5
300
330
2FE
100
AcDbEntity
  8
0
100
AcDbBlockBegin
  2
BLOCK_83
 70
     0
 10
0.0
 20
0.0
 30
0.0
  3
BLOCK_83
  1

  0
LWPOLYLINE
  5
302
330
2FE
100
AcDbEntity
  8
valley_fold
  6
AI-LINETYPE-58
 62
     7
100
AcDbPolyline
 90
        2
 70
     0
 43
0.0
 10
106.5574923778745
 20
-152.5505506346054
 10
84.83513181472874
 20
-152.5260904566601
  0
ENDBLK
  5
301
330
2FE
100
AcDbEntity
  8
0
100
AcDbBlockEnd
  0
BLOCK
  5
309
330
307
100
AcDbEntity
  8
0
100
AcDbBlockBegin
  2
BLOCK_84
 70
     0
 10
0.0
 20
0.0
 30
0.0
  3
BLOCK_84
  1

  0
LWPOLYLINE
  5
30B
330
307
100
AcDbEntity
  8
valley_fold
  6
AI-LINETYPE-59
 62
     7
100
AcDbPolyline
 90
        2
 70
     0
 43
0.0
 10
84.83513181472874
 20
-152.5260904566601
 10
82.66747773540952
 20
-158.9208766963809
  0
ENDBLK
  5
30A
330
307
100
AcDbEntity
  8
0
100
AcDbBlockEnd
  0
BLOCK
  5
312
330
310
100
AcDbEntity
  8
0
100
AcDbBlockBegin
  2
BLOCK_85
 70
     0
 10
0.0
 20
0.0
 30
0.0
  3
BLOCK_85
  1

  0
LWPOLYLINE
  5
314
330
310
100
AcDbEntity
  8
valley_fold
  6
AI-LINETYPE-60
 62
     7
100
AcDbPolyline
 90
        2
 70
     0
 43
0.0
 10
77.14120006752025
 20
-144.6350992476954
 10
84.83513181472874
 20
-152.5260904566601
  0
ENDBLK
  5
313
330
310
100
AcDbEntity
  8
0
100
AcDbBlockEnd
  0
BLOCK
  5
31B
330
319
100
AcDbEntity
  8
0
100
AcDbBlockBegin
  2
BLOCK_86
 70
     0
 10
0.0
 20
0.0
 30
0.0
  3
BLOCK_86
  1

  0
LWPOLYLINE
  5
31D
330
319
100
AcDbEntity
  8
valley_fold
  6
AI-LINETYPE-61
 62
     7
100
AcDbPolyline
 90
        2
 70
     0
 43
0.0
 10
106.5574923778745
 20
-152.5505506346054
 10
91.97802053907148
 20
-127.2518364482218
  0
ENDBLK
  5
31C
330
319
100
AcDbEntity
  8
0
100
AcDbBlockEnd
  0
BLOCK
  5
324
330
322
100
AcDbEntity
  8
0
100
AcDbBlockBegin
  2
BLOCK_87
 70
     0
 10
0.0
 20
0.0
 30
0.0
  3
BLOCK_87
  1

  0
LWPOLYLINE
  5
326
330
322
100
AcDbEntity
  8
valley_fold
  6
AI-LINETYPE-62
 62
     7
100
AcDbPolyline
 90
        2
 70
     0
 43
0.0
 10
91.97802053907148
 20
-127.2518364482218
 10
79.62287460031996
 20
-125.5685627941287
  0
ENDBLK
  5
325
330
322
100
AcDbEntity
  8
0
100
AcDbBlockEnd
  0
BLOCK
  5
32D
330
32B
100
AcDbEntity
  8
0
100
AcDbBlockBegin
  2
BLOCK_88
 70
     0
 10
0.0
 20
0.0
 30
0.0
  3
BLOCK_88
  1

  0
LWPOLYLINE
  5
32F
330
32B
100
AcDbEntity
  8
valley_fold
  6
AI-LINETYPE-63
 62
     7
100
AcDbPolyline
 90
        2
 70
     0
 43
0.0
 10
95.04432777571807
 20
-109.4598130694232
 10
91.97802053907148
 20
-127.2518364482218
  0
ENDBLK
  5
32E
330
32B
100
AcDbEntity
  8
0
100
AcDbBlockEnd
  0
BLOCK
  5
336
330
334
100
AcDbEntity
  8
0
100
AcDbBlockBegin
  2
BLOCK_89
 70
     0
 10
0.0
 20
0.0
 30
0.0
  3
BLOCK_89
  1

  0
LWPOLYLINE
  5
338
330
334
100
AcDbEntity
  8
valley_fold
  6
AI-LINETYPE-64
 62
     7
100
AcDbPolyline
 90
        2
 70
     0
 43
0.0
 10
116.4821234517823
 20
-189.8464653388231
 10
111.6142035311242
 20
-171.5540418407921
  0
ENDBLK
  5
337
330
334
100
AcDbEntity
  8
0
100
AcDbBlockEnd
  0
BLOCK
  5
33F
330
33D
100
AcDbEntity
  8
0
100
AcDbBlockBegin
  2
BLOCK_90
 70
     0
 10
0.0
 20
0.0
 30
0.0
  3
BLOCK_90
  1

  0
LWPOLYLINE
  5
341
330
33D
100
AcDbEntity
  8
valley_fold
  6
AI-LINETYPE-65
 62
     7
100
AcDbPolyline
 90
        2
 70
     0
 43
0.0
 10
101.4387695058903
 20
-171.5381944015599
 10
96.51090492378893
 20
-189.8137369317131
  0
ENDBLK
  5
340
330
33D
100
AcDbEntity
  8
0
100
AcDbBlockEnd
  0
BLOCK
  5
348
330
346
100
AcDbEntity
  8
0
100
AcDbBlockBegin
  2
BLOCK_91
 70
     0
 10
0.0
 20
0.0
 30
0.0
  3
BLOCK_91
  1

  0
LWPOLYLINE
  5
34A
330
346
100
AcDbEntity
  8
valley_fold
  6
AI-LINETYPE-66
 62
     7
100
AcDbPolyline
 90
        2
 70
     0
 43
0.0
 10
135.6323757256405
 20
-181.7349880188024
 10
121.560538706589
 20
-167.6104410388266
  0
ENDBLK
  5
349
330
346
100
AcDbEntity
  8
0
100
AcDbBlockEnd
  0
BLOCK
  5
351
330
34F
100
AcDbEntity
  8
0
100
AcDbBlockBegin
  2
BLOCK_92
 70
     0
 10
0.0
 20
0.0
 30
0.0
  3
BLOCK_92
  1

  0
LWPOLYLINE
  5
353
330
34F
100
AcDbEntity
  8
valley_fold
  6
AI-LINETYPE-67
 62
     7
100
AcDbPolyline
 90
        2
 70
     0
 43
0.0
 10
91.50569794804374
 20
-167.560831663839
 10
77.38786890426415
 20
-181.6395588738609
  0
ENDBLK
  5
352
330
34F
100
AcDbEntity
  8
0
100
AcDbBlockEnd
  0
BLOCK
  5
35A
330
358
100
AcDbEntity
  8
0
100
AcDbBlockBegin
  2
BLOCK_93
 70
     0
 10
0.0
 20
0.0
 30
0.0
  3
BLOCK_93
  1

  0
LWPOLYLINE
  5
35C
330
358
100
AcDbEntity
  8
valley_fold
  6
AI-LINETYPE-68
 62
     7
100
AcDbPolyline
 90
        2
 70
     0
 43
0.0
 10
151.5842013509929
 20
-164.7158718121196
 10
130.426836447428
 20
-158.9994248734446
  0
ENDBLK
  5
35B
330
358
100
AcDbEntity
  8
0
100
AcDbBlockEnd
  0
BLOCK
  5
363
330
361
100
AcDbEntity
  8
0
100
AcDbBlockBegin
  2
BLOCK_94
 70
     0
 10
0.0
 20
0.0
 30
0.0
  3
BLOCK_94
  1

  0
LWPOLYLINE
  5
365
330
361
100
AcDbEntity
  8
valley_fold
  6
AI-LINETYPE-69
 62
     7
100
AcDbPolyline
 90
        2
 70
     0
 43
0.0
 10
82.66747773540952
 20
-158.9208766963809
 10
61.49168157099861
 20
-164.5673881967054
  0
ENDBLK
  5
364
330
361
100
AcDbEntity
  8
0
100
AcDbBlockEnd
  0
BLOCK
  5
36C
330
36A
100
AcDbEntity
  8
0
100
AcDbBlockBegin
  2
BLOCK_95
 70
     0
 10
0.0
 20
0.0
 30
0.0
  3
BLOCK_95
  1

  0
LWPOLYLINE
  5
36E
330
36A
100
AcDbEntity
  8
valley_fold
  6
AI-LINETYPE-70
 62
     7
100
AcDbPolyline
 90
        2
 70
     0
 43
0.0
 10
120.759898515817
 20
-99.8764187033295
 10
118.1574733862593
 20
-109.4832397187229
  0
ENDBLK
  5
36D
330
36A
100
AcDbEntity
  8
0
100
AcDbBlockEnd
  0
BLOCK
  5
375
330
373
100
AcDbEntity
  8
0
100
AcDbBlockBegin
  2
BLOCK_96
 70
     0
 10
0.0
 20
0.0
 30
0.0
  3
BLOCK_96
  1

  0
LWPOLYLINE
  5
377
330
373
100
AcDbEntity
  8
valley_fold
  6
AI-LINETYPE-71
 62
     7
100
AcDbPolyline
 90
        2
 70
     0
 43
0.0
 10
133.5818548928198
 20
-125.6571017480996
 10
145.1870035444324
 20
-114.027665173316
  0
ENDBLK
  5
376
330
373
100
AcDbEntity
  8
0
100
AcDbBlockEnd
  0
BLOCK
  5
37E
330
37C
100
AcDbEntity
  8
0
100
AcDbBlockBegin
  2
BLOCK_97
 70
     0
 10
0.0
 20
0.0
 30
0.0
  3
BLOCK_97
  1

  0
LWPOLYLINE
  5
380
330
37C
100
AcDbEntity
  8
valley_fold
  6
AI-LINETYPE-72
 62
     7
100
AcDbPolyline
 90
        2
 70
     0
 43
0.0
 10
136.0003119234652
 20
-144.7322509403794
 10
159.2705538881337
 20
-138.4949055643346
  0
ENDBLK
  5
37F
330
37C
100
AcDbEntity
  8
0
100
AcDbBlockEnd
  0
BLOCK
  5
387
330
385
100
AcDbEntity
  8
0
100
AcDbBlockBegin
  2
BLOCK_98
 70
     0
 10
0.0
 20
0.0
 30
0.0
  3
BLOCK_98
  1

  0
LWPOLYLINE
  5
389
330
385
100
AcDbEntity
  8
valley_fold
  6
AI-LINETYPE-73
 62
     7
100
AcDbPolyline
 90
        2
 70
     0
 43
0.0
 10
53.87664251040236
 20
-138.375705260545
 10
77.14120006752025
 20
-144.6350992476954
  0
ENDBLK
  5
388
330
385
100
AcDbEntity
  8
0
100
AcDbBlockEnd
  0
BLOCK
  5
390
330
38E
100
AcDbEntity
  8
0
100
AcDbBlockBegin
  2
BLOCK_99
 70
     0
 10
0.0
 20
0.0
 30
0.0
  3
BLOCK_99
  1

  0
LWPOLYLINE
  5
392
330
38E
100
AcDbEntity
  8
valley_fold
  6
AI-LINETYPE-74
 62
     7
100
AcDbPolyline
 90
        2
 70
     0
 43
0.0
 10
79.62287460031996
 20
-125.5685627941287
 10
68.01514212709344
 20
-113.9408487670877
  0
ENDBLK
  5
391
330
38E
100
AcDbEntity
  8
0
100
AcDbBlockEnd
  0
BLOCK
  5
399
330
397
100
AcDbEntity
  8
0
100
AcDbBlockBegin
  2
BLOCK_100
 70
     0
 10
0.0
 20
0.0
 30
0.0
  3
BLOCK_100
  1

  0
LWPOLYLINE
  5
39B
330
397
100
AcDbEntity
  8
valley_fold
  6
AI-LINETYPE-75
 62
     7
100
AcDbPolyline
 90
        2
 70
     0
 43
0.0
 10
95.04432777571807
 20
-109.4598130694232
 10
92.47463105327023
 20
-99.84472382486522
  0
ENDBLK
  5
39A
330
397
100
AcDbEntity
  8
0
100
AcDbBlockEnd
  0
BLOCK
  5
3A2
330
3A0
100
AcDbEntity
  8
0
100
AcDbBlockBegin
  2
BLOCK_101
 70
     0
 10
0.0
 20
0.0
 30
0.0
  3
BLOCK_101
  1

  0
LWPOLYLINE
  5
3A4
330
3A0
100
AcDbEntity
  8
valley_fold
  6
AI-LINETYPE-76
 62
     7
100
AcDbPolyline
 90
        2
 70
     0
 43
0.0
 10
158.357259074994
 20
-139.9180745092913
 10
149.9746527402841
 20
-152.6442572318041
  0
ENDBLK
  5
3A3
330
3A0
100
AcDbEntity
  8
0
100
AcDbBlockEnd
  0
BLOCK
  5
3AB
330
3A9
100
AcDbEntity
  8
0
100
AcDbBlockBegin
  2
BLOCK_102
 70
     0
 10
0.0
 20
0.0
 30
0.0
  3
BLOCK_102
  1

  0
LWPOLYLINE
  5
3AD
330
3A9
100
AcDbEntity
  8
valley_fold
  6
AI-LINETYPE-77
 62
     7
100
AcDbPolyline
 90
        2
 70
     0
 43
0.0
 10
159.2247341181799
 20
-166.7794840077843
 10
168.2415825317243
 20
-169.2151665158559
  0
ENDBLK
  5
3AC
330
3A9
100
AcDbEntity
  8
0
100
AcDbBlockEnd
  0
BLOCK
  5
3B4
330
3B2
100
AcDbEntity
  8
0
100
AcDbBlockBegin
  2
BLOCK_103
 70
     0
 10
0.0
 20
0.0
 30
0.0
  3
BLOCK_103
  1

  0
LWPOLYLINE
  5
3B6
330
3B2
100
AcDbEntity
  8
valley_fold
  6
AI-LINETYPE-78
 62
     7
100
AcDbPolyline
 90
        2
 70
     0
 43
0.0
 10
149.9746527402841
 20
-152.6442572318041
 10
159.2247341181799
 20
-166.7794840077843
  0
ENDBLK
  5
3B5
330
3B2
100
AcDbEntity
  8
0
100
AcDbBlockEnd
  0
BLOCK
  5
3BD
330
3BB
100
AcDbEntity
  8
0
100
AcDbBlockBegin
  2
BLOCK_104
 70
     0
 10
0.0
 20
0.0
 30
0.0
  3
BLOCK_104
  1

  0
LWPOLYLINE
  5
3BF
330
3BB
100
AcDbEntity
  8
valley_fold
  6
AI-LINETYPE-79
 62
     7
100
AcDbPolyline
 90
        2
 70
     0
 43
0.0
 10
159.2247341181799
 20
-166.7794840077843
 10
144.1148898294227
 20
-174.3332003687431
  0
ENDBLK
  5
3BE
330
3BB
100
AcDbEntity
  8
0
100
AcDbBlockEnd
  0
BLOCK
  5
3C6
330
3C4
100
AcDbEntity
  8
0
100
AcDbBlockBegin
  2
BLOCK_105
 70
     0
 10
0.0
 20
0.0
 30
0.0
  3
BLOCK_105
  1

  0
LWPOLYLINE
  5
3C8
330
3C4
100
AcDbEntity
  8
valley_fold
  6
AI-LINETYPE-80
 62
     7
100
AcDbPolyline
 90
        2
 70
     0
 43
0.0
 10
145.0609130496723
 20
-191.1996988454293
 10
159.9867892395172
 20
-206.1820746012323
  0
ENDBLK
  5
3C7
330
3C4
100
AcDbEntity
  8
0
100
AcDbBlockEnd
  0
BLOCK
  5
3CF
330
3CD
100
AcDbEntity
  8
0
100
AcDbBlockBegin
  2
BLOCK_106
 70
     0
 10
0.0
 20
0.0
 30
0.0
  3
BLOCK_106
  1

  0
LWPOLYLINE
  5
3D1
330
3CD
100
AcDbEntity
  8
valley_fold
  6
AI-LINETYPE-81
 62
     7
100
AcDbPolyline
 90
        2
 70
     0
 43
0.0
 10
144.1148898294227
 20
-174.3332003687431
 10
145.0609130496723
 20
-191.1996988454293
  0
ENDBLK
  5
3D0
330
3CD
100
AcDbEntity
  8
0
100
AcDbBlockEnd
  0
BLOCK
  5
3D8
330
3D6
100
AcDbEntity
  8
0
100
AcDbBlockBegin
  2
BLOCK_107
 70
     0
 10
0.0
 20
0.0
 30
0.0
  3
BLOCK_107
  1

  0
LWPOLYLINE
  5
3DA
330
3D6
100
AcDbEntity
  8
valley_fold
  6
AI-LINETYPE-82
 62
     7
100
AcDbPolyline
 90
        2
 70
     0
 43
0.0
 10
146.7431531751198
 20
-152.6373670408337
 10
149.9746527402841
 20
-152.6442572318041
  0
ENDBLK
  5
3D9
330
3D6
100
AcDbEntity
  8
0
100
AcDbBlockEnd
  0
BLOCK
  5
3E1
330
3DF
100
AcDbEntity
  8
0
100
AcDbBlockBegin
  2
BLOCK_108
 70
     0
 10
0.0
 20
0.0
 30
0.0
  3
BLOCK_108
  1

  0
LWPOLYLINE
  5
3E3
330
3DF
100
AcDbEntity
  8
valley_fold
  6
AI-LINETYPE-83
 62
     7
100
AcDbPolyline
 90
        2
 70
     0
 43
0.0
 10
137.6653265714864
 20
-170.5928602004074
 10
144.1148898294227
 20
-174.3332003687431
  0
ENDBLK
  5
3E2
330
3DF
100
AcDbEntity
  8
0
100
AcDbBlockEnd
  0
BLOCK
  5
3EA
330
3E8
100
AcDbEntity
  8
0
100
AcDbBlockBegin
  2
BLOCK_109
 70
     0
 10
0.0
 20
0.0
 30
0.0
  3
BLOCK_109
  1

  0
LWPOLYLINE
  5
3EC
330
3E8
100
AcDbEntity
  8
valley_fold
  6
AI-LINETYPE-84
 62
     7
100
AcDbPolyline
 90
        2
 70
     0
 43
0.0
 10
123.200404157568
 20
-181.4986544685142
 10
128.1982041780199
 20
-190.190285868251
  0
ENDBLK
  5
3EB
330
3E8
100
AcDbEntity
  8
0
100
AcDbBlockEnd
  0
BLOCK
  5
3F3
330
3F1
100
AcDbEntity
  8
0
100
AcDbBlockBegin
  2
BLOCK_110
 70
     0
 10
0.0
 20
0.0
 30
0.0
  3
BLOCK_110
  1

  0
LWPOLYLINE
  5
3F5
330
3F1
100
AcDbEntity
  8
valley_fold
  6
AI-LINETYPE-85
 62
     7
100
AcDbPolyline
 90
        2
 70
     0
 43
0.0
 10
128.1982041780199
 20
-190.190285868251
 10
145.0609130496723
 20
-191.1996988454293
  0
ENDBLK
  5
3F4
330
3F1
100
AcDbEntity
  8
0
100
AcDbBlockEnd
  0
BLOCK
  5
3FC
330
3FA
100
AcDbEntity
  8
0
100
AcDbBlockBegin
  2
BLOCK_111
 70
     0
 10
0.0
 20
0.0
 30
0.0
  3
BLOCK_111
  1

  0
LWPOLYLINE
  5
3FE
330
3FA
100
AcDbEntity
  8
valley_fold
  6
AI-LINETYPE-86
 62
     7
100
AcDbPolyline
 90
        2
 70
     0
 43
0.0
 10
120.587299232006
 20
-205.2708468453837
 10
128.1982041780199
 20
-190.190285868251
  0
ENDBLK
  5
3FD
330
3FA
100
AcDbEntity
  8
0
100
AcDbBlockEnd
  0
BLOCK
  5
405
330
403
100
AcDbEntity
  8
0
100
AcDbBlockBegin
  2
BLOCK_112
 70
     0
 10
0.0
 20
0.0
 30
0.0
  3
BLOCK_112
  1

  0
LWPOLYLINE
  5
407
330
403
100
AcDbEntity
  8
valley_fold
  6
AI-LINETYPE-87
 62
     7
100
AcDbPolyline
 90
        2
 70
     0
 43
0.0
 10
106.3842040749664
 20
-195.795800732301
 10
120.5866102129089
 20
-205.2715358644807
  0
ENDBLK
  5
406
330
403
100
AcDbEntity
  8
0
100
AcDbBlockEnd
  0
BLOCK
  5
40F
330
40D
100
AcDbEntity
  8
0
100
AcDbBlockBegin
  2
BLOCK_113
 70
     0
 10
0.0
 20
0.0
 30
0.0
  3
BLOCK_113
  1

  0
LWPOLYLINE
  5
411
330
40D
100
AcDbEntity
  8
mountain_fold
 62
     7
100
AcDbPolyline
 90
        2
 70
     0
 43
0.0
 10
84.49682343807719
 20
-234.3753580143228
 10
100.828298585904
 20
-218.8696722543104
  0
ENDBLK
  5
410
330
40D
100
AcDbEntity
  8
0
100
AcDbBlockEnd
  0
BLOCK
  5
417
330
415
100
AcDbEntity
  8
0
100
AcDbBlockBegin
  2
BLOCK_114
 70
     0
 10
0.0
 20
0.0
 30
0.0
  3
BLOCK_114
  1

  0
LWPOLYLINE
  5
419
330
415
100
AcDbEntity
  8
mountain_fold
 62
     7
100
AcDbPolyline
 90
        2
 70
     0
 43
0.0
 10
100.828298585904
 20
-218.8696722543104
 10
106.4582736278993
 20
-213.5242620993967
  0
ENDBLK
  5
418
330
415
100
AcDbEntity
  8
0
100
AcDbBlockEnd
  0
BLOCK
  5
41F
330
41D
100
AcDbEntity
  8
0
100
AcDbBlockBegin
  2
BLOCK_115
 70
     0
 10
0.0
 20
0.0
 30
0.0
  3
BLOCK_115
  1

  0
LWPOLYLINE
  5
421
330
41D
100
AcDbEntity
  8
mountain_fold
 62
     7
100
AcDbPolyline
 90
        2
 70
     0
 43
0.0
 10
106.4579291183508
 20
-213.5249511184938
 10
106.4865234108784
 20
-195.967021977918
  0
ENDBLK
  5
420
330
41D
100
AcDbEntity
  8
0
100
AcDbBlockEnd
  0
BLOCK
  5
427
330
425
100
AcDbEntity
  8
0
100
AcDbBlockBegin
  2
BLOCK_116
 70
     0
 10
0.0
 20
0.0
 30
0.0
  3
BLOCK_116
  1

  0
LWPOLYLINE
  5
429
330
425
100
AcDbEntity
  8
mountain_fold
 62
     7
100
AcDbPolyline
 90
        2
 70
     0
 43
0.0
 10
106.4582736278993
 20
-213.5242620993967
 10
123.8418809369215
 20
-230.137546057917
  0
ENDBLK
  5
428
330
425
100
AcDbEntity
  8
0
100
AcDbBlockEnd
  0
BLOCK
  5
42F
330
42D
100
AcDbEntity
  8
0
100
AcDbBlockBegin
  2
BLOCK_117
 70
     0
 10
0.0
 20
0.0
 30
0.0
  3
BLOCK_117
  1

  0
LWPOLYLINE
  5
431
330
42D
100
AcDbEntity
  8
mountain_fold
 62
     7
100
AcDbPolyline
 90
        2
 70
     0
 43
0.0
 10
123.8418809369215
 20
-230.137546057917
 10
128.3515109271135
 20
-234.4473605099646
  0
ENDBLK
  5
430
330
42D
100
AcDbEntity
  8
0
100
AcDbBlockEnd
  0
BLOCK
  5
437
330
435
100
AcDbEntity
  8
0
100
AcDbBlockBegin
  2
BLOCK_118
 70
     0
 10
0.0
 20
0.0
 30
0.0
  3
BLOCK_118
  1

  0
LWPOLYLINE
  5
439
330
435
100
AcDbEntity
  8
mountain_fold
 62
     7
100
AcDbPolyline
 90
        2
 70
     0
 43
0.0
 10
84.79447968800277
 20
-190.1189723917064
 10
77.20097247418934
 20
-203.2261826748879
  0
ENDBLK
  5
438
330
435
100
AcDbEntity
  8
0
100
AcDbBlockEnd
  0
BLOCK
  5
43F
330
43D
100
AcDbEntity
  8
0
100
AcDbBlockBegin
  2
BLOCK_119
 70
     0
 10
0.0
 20
0.0
 30
0.0
  3
BLOCK_119
  1

  0
LWPOLYLINE
  5
441
330
43D
100
AcDbEntity
  8
mountain_fold
 62
     7
100
AcDbPolyline
 90
        2
 70
     0
 43
0.0
 10
77.20097247418934
 20
-203.2261826748879
 10
82.8104491980474
 20
-227.1747639406022
  0
ENDBLK
  5
440
330
43D
100
AcDbEntity
  8
0
100
AcDbBlockEnd
  0
BLOCK
  5
447
330
445
100
AcDbEntity
  8
0
100
AcDbBlockBegin
  2
BLOCK_120
 70
     0
 10
0.0
 20
0.0
 30
0.0
  3
BLOCK_120
  1

  0
LWPOLYLINE
  5
449
330
445
100
AcDbEntity
  8
mountain_fold
 62
     7
100
AcDbPolyline
 90
        2
 70
     0
 43
0.0
 10
82.8104491980474
 20
-227.1747639406022
 10
84.49734020239997
 20
-234.3753580143228
  0
ENDBLK
  5
448
330
445
100
AcDbEntity
  8
0
100
AcDbBlockEnd
  0
BLOCK
  5
44F
330
44D
100
AcDbEntity
  8
0
100
AcDbBlockBegin
  2
BLOCK_121
 70
     0
 10
0.0
 20
0.0
 30
0.0
  3
BLOCK_121
  1

  0
LWPOLYLINE
  5
451
330
44D
100
AcDbEntity
  8
mountain_fold
 62
     7
100
AcDbPolyline
 90
        2
 70
     0
 43
0.0
 10
52.9533569203554
 20
-206.0070637505816
 10
68.35293373942218
 20
-204.2404187857454
  0
ENDBLK
  5
450
330
44D
100
AcDbEntity
  8
0
100
AcDbBlockEnd
  0
BLOCK
  5
457
330
455
100
AcDbEntity
  8
0
100
AcDbBlockBegin
  2
BLOCK_122
 70
     0
 10
0.0
 20
0.0
 30
0.0
  3
BLOCK_122
  1

  0
LWPOLYLINE
  5
459
330
455
100
AcDbEntity
  8
mountain_fold
 62
     7
100
AcDbPolyline
 90
        2
 70
     0
 43
0.0
 10
68.35293373942218
 20
-204.2404187857454
 10
77.20097247418934
 20
-203.2261826748879
  0
ENDBLK
  5
458
330
455
100
AcDbEntity
  8
0
100
AcDbBlockEnd
  0
BLOCK
  5
45F
330
45D
100
AcDbEntity
  8
0
100
AcDbBlockBegin
  2
BLOCK_123
 70
     0
 10
0.0
 20
0.0
 30
0.0
  3
BLOCK_123
  1

  0
LWPOLYLINE
  5
461
330
45D
100
AcDbEntity
  8
mountain_fold
 62
     7
100
AcDbPolyline
 90
        2
 70
     0
 43
0.0
 10
68.92929821410447
 20
-174.2105549694682
 10
60.74702418186186
 20
-178.9200004978047
  0
ENDBLK
  5
460
330
45D
100
AcDbEntity
  8
0
100
AcDbBlockEnd
  0
BLOCK
  5
467
330
465
100
AcDbEntity
  8
0
100
AcDbBlockBegin
  2
BLOCK_124
 70
     0
 10
0.0
 20
0.0
 30
0.0
  3
BLOCK_124
  1

  0
LWPOLYLINE
  5
469
330
465
100
AcDbEntity
  8
mountain_fold
 62
     7
100
AcDbPolyline
 90
        2
 70
     0
 43
0.0
 10
60.74702418186186
 20
-178.9200004978047
 10
56.69094101230296
 20
-193.015953185253
  0
ENDBLK
  5
468
330
465
100
AcDbEntity
  8
0
100
AcDbBlockEnd
  0
BLOCK
  5
46F
330
46D
100
AcDbEntity
  8
0
100
AcDbBlockBegin
  2
BLOCK_125
 70
     0
 10
0.0
 20
0.0
 30
0.0
  3
BLOCK_125
  1

  0
LWPOLYLINE
  5
471
330
46D
100
AcDbEntity
  8
mountain_fold
 62
     7
100
AcDbPolyline
 90
        2
 70
     0
 43
0.0
 10
56.69094101230296
 20
-193.015953185253
 10
52.9533569203554
 20
-206.0070637505816
  0
ENDBLK
  5
470
330
46D
100
AcDbEntity
  8
0
100
AcDbBlockEnd
  0
BLOCK
  5
477
330
475
100
AcDbEntity
  8
0
100
AcDbBlockBegin
  2
BLOCK_126
 70
     0
 10
0.0
 20
0.0
 30
0.0
  3
BLOCK_126
  1

  0
LWPOLYLINE
  5
479
330
475
100
AcDbEntity
  8
mountain_fold
 62
     7
100
AcDbPolyline
 90
        2
 70
     0
 43
0.0
 10
44.82000324400332
 20
-169.0129394108718
 10
50.62516139142356
 20
-172.6244330080592
  0
ENDBLK
  5
478
330
475
100
AcDbEntity
  8
0
100
AcDbBlockEnd
  0
BLOCK
  5
47F
330
47D
100
AcDbEntity
  8
0
100
AcDbBlockBegin
  2
BLOCK_127
 70
     0
 10
0.0
 20
0.0
 30
0.0
  3
BLOCK_127
  1

  0
LWPOLYLINE
  5
481
330
47D
100
AcDbEntity
  8
mountain_fold
 62
     7
100
AcDbPolyline
 90
        2
 70
     0
 43
0.0
 10
50.62516139142356
 20
-172.6244330080592
 10
60.74702418186186
 20
-178.9200004978047
  0
ENDBLK
  5
480
330
47D
100
AcDbEntity
  8
0
100
AcDbBlockEnd
  0
BLOCK
  5
487
330
485
100
AcDbEntity
  8
0
100
AcDbBlockBegin
  2
BLOCK_128
 70
     0
 10
0.0
 20
0.0
 30
0.0
  3
BLOCK_128
  1

  0
LWPOLYLINE
  5
489
330
485
100
AcDbEntity
  8
mountain_fold
 62
     7
100
AcDbPolyline
 90
        2
 70
     0
 43
0.0
 10
63.14050427023918
 20
-152.5016302787149
 10
59.90866019552631
 20
-152.4985296927782
  0
ENDBLK
  5
488
330
485
100
AcDbEntity
  8
0
100
AcDbBlockEnd
  0
BLOCK
  5
48F
330
48D
100
AcDbEntity
  8
0
100
AcDbBlockBegin
  2
BLOCK_129
 70
     0
 10
0.0
 20
0.0
 30
0.0
  3
BLOCK_129
  1

  0
LWPOLYLINE
  5
491
330
48D
100
AcDbEntity
  8
mountain_fold
 62
     7
100
AcDbPolyline
 90
        2
 70
     0
 43
0.0
 10
59.90866019552631
 20
-152.4985296927782
 10
57.09763453433671
 20
-155.5746554515577
  0
ENDBLK
  5
490
330
48D
100
AcDbEntity
  8
0
100
AcDbBlockEnd
  0
BLOCK
  5
497
330
495
100
AcDbEntity
  8
0
100
AcDbBlockBegin
  2
BLOCK_130
 70
     0
 10
0.0
 20
0.0
 30
0.0
  3
BLOCK_130
  1

  0
LWPOLYLINE
  5
499
330
495
100
AcDbEntity
  8
mountain_fold
 62
     7
100
AcDbPolyline
 90
        2
 70
     0
 43
0.0
 10
57.09763453433671
 20
-155.5746554515577
 10
44.82000324400332
 20
-169.0129394108718
  0
ENDBLK
  5
498
330
495
100
AcDbEntity
  8
0
100
AcDbBlockEnd
  0
BLOCK
  5
49F
330
49D
100
AcDbEntity
  8
0
100
AcDbBlockBegin
  2
BLOCK_131
 70
     0
 10
0.0
 20
0.0
 30
0.0
  3
BLOCK_131
  1

  0
LWPOLYLINE
  5
4A1
330
49D
100
AcDbEntity
  8
mountain_fold
 62
     7
100
AcDbPolyline
 90
        2
 70
     0
 43
0.0
 10
54.79303790947883
 20
-139.7744140275564
 10
59.90866019552631
 20
-152.4985296927782
  0
ENDBLK
  5
4A0
330
49D
100
AcDbEntity
  8
0
100
AcDbBlockEnd
  0
BLOCK
  5
4A7
330
4A5
100
AcDbEntity
  8
0
100
AcDbBlockBegin
  2
BLOCK_132
 70
     0
 10
0.0
 20
0.0
 30
0.0
  3
BLOCK_132
  1

  0
LWPOLYLINE
  5
4A9
330
4A5
100
AcDbEntity
  8
mountain_fold
 62
     7
100
AcDbPolyline
 90
        2
 70
     0
 43
0.0
 10
66.37252059972631
 20
-152.5050753742001
 10
54.79321016425309
 20
-139.7744140275564
  0
ENDBLK
  5
4A8
330
4A5
100
AcDbEntity
  8
0
100
AcDbBlockEnd
  0
BLOCK
  5
4AF
330
4AD
100
AcDbEntity
  8
0
100
AcDbBlockBegin
  2
BLOCK_133
 70
     0
 10
0.0
 20
0.0
 30
0.0
  3
BLOCK_133
  1

  0
LWPOLYLINE
  5
4B1
330
4AD
100
AcDbEntity
  8
mountain_fold
 62
     7
100
AcDbPolyline
 90
        2
 70
     0
 43
0.0
 10
53.84460312238953
 20
-166.6068847239733
 10
61.49168157099861
 20
-164.5673881967054
  0
ENDBLK
  5
4B0
330
4AD
100
AcDbEntity
  8
0
100
AcDbBlockEnd
  0
BLOCK
  5
4B7
330
4B5
100
AcDbEntity
  8
0
100
AcDbBlockBegin
  2
BLOCK_134
 70
     0
 10
0.0
 20
0.0
 30
0.0
  3
BLOCK_134
  1

  0
LWPOLYLINE
  5
4B9
330
4B5
100
AcDbEntity
  8
mountain_fold
 62
     7
100
AcDbPolyline
 90
        2
 70
     0
 43
0.0
 10
61.49168157099861
 20
-164.5673881967054
 10
66.37252059972631
 20
-152.5050753742001
  0
ENDBLK
  5
4B8
330
4B5
100
AcDbEntity
  8
0
100
AcDbBlockEnd
  0
BLOCK
  5
4BF
330
4BD
100
AcDbEntity
  8
0
100
AcDbBlockBegin
  2
BLOCK_135
 70
     0
 10
0.0
 20
0.0
 30
0.0
  3
BLOCK_135
  1

  0
LWPOLYLINE
  5
4C1
330
4BD
100
AcDbEntity
  8
mountain_fold
 62
     7
100
AcDbPolyline
 90
        2
 70
     0
 43
0.0
 10
75.39160832533612
 20
-170.4901963549469
 10
61.49168157099861
 20
-164.5673881967054
  0
ENDBLK
  5
4C0
330
4BD
100
AcDbEntity
  8
0
100
AcDbBlockEnd
  0
BLOCK
  5
4C7
330
4C5
100
AcDbEntity
  8
0
100
AcDbBlockBegin
  2
BLOCK_136
 70
     0
 10
0.0
 20
0.0
 30
0.0
  3
BLOCK_136
  1

  0
LWPOLYLINE
  5
4C9
330
4C5
100
AcDbEntity
  8
mountain_fold
 62
     7
100
AcDbPolyline
 90
        2
 70
     0
 43
0.0
 10
67.92832572086514
 20
-191.0732638411206
 10
77.38786890426415
 20
-181.6395588738609
  0
ENDBLK
  5
4C8
330
4C5
100
AcDbEntity
  8
0
100
AcDbBlockEnd
  0
BLOCK
  5
4CF
330
4CD
100
AcDbEntity
  8
0
100
AcDbBlockBegin
  2
BLOCK_137
 70
     0
 10
0.0
 20
0.0
 30
0.0
  3
BLOCK_137
  1

  0
LWPOLYLINE
  5
4D1
330
4CD
100
AcDbEntity
  8
mountain_fold
 62
     7
100
AcDbPolyline
 90
        2
 70
     0
 43
0.0
 10
77.38786890426415
 20
-181.6395588738609
 10
75.39160832533612
 20
-170.4901963549469
  0
ENDBLK
  5
4D0
330
4CD
100
AcDbEntity
  8
0
100
AcDbBlockEnd
  0
BLOCK
  5
4D7
330
4D5
100
AcDbEntity
  8
0
100
AcDbBlockBegin
  2
BLOCK_138
 70
     0
 10
0.0
 20
0.0
 30
0.0
  3
BLOCK_138
  1

  0
LWPOLYLINE
  5
4D9
330
4D5
100
AcDbEntity
  8
mountain_fold
 62
     7
100
AcDbPolyline
 90
        2
 70
     0
 43
0.0
 10
89.81966821756245
 20
-181.4435329407502
 10
77.38786890426415
 20
-181.6395588738609
  0
ENDBLK
  5
4D8
330
4D5
100
AcDbEntity
  8
0
100
AcDbBlockEnd
  0
BLOCK
  5
4DF
330
4DD
100
AcDbEntity
  8
0
100
AcDbBlockBegin
  2
BLOCK_139
 70
     0
 10
0.0
 20
0.0
 30
0.0
  3
BLOCK_139
  1

  0
LWPOLYLINE
  5
4E1
330
4DD
100
AcDbEntity
  8
mountain_fold
 62
     7
100
AcDbPolyline
 90
        2
 70
     0
 43
0.0
 10
92.35611976857763
 20
-205.2243380563328
 10
96.51090492378893
 20
-189.8137369317131
  0
ENDBLK
  5
4E0
330
4DD
100
AcDbEntity
  8
0
100
AcDbBlockEnd
  0
BLOCK
  5
4E7
330
4E5
100
AcDbEntity
  8
0
100
AcDbBlockBegin
  2
BLOCK_140
 70
     0
 10
0.0
 20
0.0
 30
0.0
  3
BLOCK_140
  1

  0
LWPOLYLINE
  5
4E9
330
4E5
100
AcDbEntity
  8
mountain_fold
 62
     7
100
AcDbPolyline
 90
        2
 70
     0
 43
0.0
 10
96.51090492378893
 20
-189.8137369317131
 10
89.81966821756245
 20
-181.4435329407502
  0
ENDBLK
  5
4E8
330
4E5
100
AcDbEntity
  8
0
100
AcDbBlockEnd
  0
BLOCK
  5
4EF
330
4ED
100
AcDbEntity
  8
0
100
AcDbBlockBegin
  2
BLOCK_141
 70
     0
 10
0.0
 20
0.0
 30
0.0
  3
BLOCK_141
  1

  0
LWPOLYLINE
  5
4F1
330
4ED
100
AcDbEntity
  8
mountain_fold
 62
     7
100
AcDbPolyline
 90
        2
 70
     0
 43
0.0
 10
106.5044379074017
 20
-185.0901665118871
 10
96.51090492378893
 20
-189.8137369317131
  0
ENDBLK
  5
4F0
330
4ED
100
AcDbEntity
  8
0
100
AcDbBlockEnd
  0
BLOCK
  5
4F7
330
4F5
100
AcDbEntity
  8
0
100
AcDbBlockBegin
  2
BLOCK_142
 70
     0
 10
0.0
 20
0.0
 30
0.0
  3
BLOCK_142
  1

  0
LWPOLYLINE
  5
4F9
330
4F5
100
AcDbEntity
  8
mountain_fold
 62
     7
100
AcDbPolyline
 90
        2
 70
     0
 43
0.0
 10
158.6776529551223
 20
-175.1204046871227
 10
152.2814886772074
 20
-179.0695176418646
  0
ENDBLK
  5
4F8
330
4F5
100
AcDbEntity
  8
0
100
AcDbBlockEnd
  0
BLOCK
  5
4FF
330
4FD
100
AcDbEntity
  8
0
100
AcDbBlockBegin
  2
BLOCK_143
 70
     0
 10
0.0
 20
0.0
 30
0.0
  3
BLOCK_143
  1

  0
LWPOLYLINE
  5
501
330
4FD
100
AcDbEntity
  8
mountain_fold
 62
     7
100
AcDbPolyline
 90
        2
 70
     0
 43
0.0
 10
168.2402044935301
 20
-169.2144774967589
 10
158.6776529551223
 20
-175.1204046871227
  0
ENDBLK
  5
500
330
4FD
100
AcDbEntity
  8
0
100
AcDbBlockEnd
  0
BLOCK
  5
507
330
505
100
AcDbEntity
  8
0
100
AcDbBlockBegin
  2
BLOCK_144
 70
     0
 10
0.0
 20
0.0
 30
0.0
  3
BLOCK_144
  1

  0
LWPOLYLINE
  5
509
330
505
100
AcDbEntity
  8
mountain_fold
 62
     7
100
AcDbPolyline
 90
        2
 70
     0
 43
0.0
 10
155.6342556034525
 20
-190.8638020356174
 10
159.9867892395172
 20
-206.1820746012323
  0
ENDBLK
  5
508
330
505
100
AcDbEntity
  8
0
100
AcDbBlockEnd
  0
BLOCK
  5
50F
330
50D
100
AcDbEntity
  8
0
100
AcDbBlockBegin
  2
BLOCK_145
 70
     0
 10
0.0
 20
0.0
 30
0.0
  3
BLOCK_145
  1

  0
LWPOLYLINE
  5
511
330
50D
100
AcDbEntity
  8
mountain_fold
 62
     7
100
AcDbPolyline
 90
        2
 70
     0
 43
0.0
 10
152.2814886772074
 20
-179.0695176418646
 10
155.6342556034525
 20
-190.8638020356174
  0
ENDBLK
  5
510
330
50D
100
AcDbEntity
  8
0
100
AcDbBlockEnd
  0
BLOCK
  5
517
330
515
100
AcDbEntity
  8
0
100
AcDbBlockBegin
  2
BLOCK_146
 70
     0
 10
0.0
 20
0.0
 30
0.0
  3
BLOCK_146
  1

  0
LWPOLYLINE
  5
519
330
515
100
AcDbEntity
  8
mountain_fold
 62
     7
100
AcDbPolyline
 90
        2
 70
     0
 43
0.0
 10
159.9867892395172
 20
-206.1813855821352
 10
173.3782199002318
 20
-219.623459146483
  0
ENDBLK
  5
518
330
515
100
AcDbEntity
  8
0
100
AcDbBlockEnd
  0
BLOCK
  5
51F
330
51D
100
AcDbEntity
  8
0
100
AcDbBlockBegin
  2
BLOCK_147
 70
     0
 10
0.0
 20
0.0
 30
0.0
  3
BLOCK_147
  1

  0
LWPOLYLINE
  5
521
330
51D
100
AcDbEntity
  8
mountain_fold
 62
     7
100
AcDbPolyline
 90
        2
 70
     0
 43
0.0
 10
151.1435736384294
 20
-205.1385551787501
 10
135.7484754434934
 20
-203.3216118198293
  0
ENDBLK
  5
520
330
51D
100
AcDbEntity
  8
0
100
AcDbBlockEnd
  0
BLOCK
  5
527
330
525
100
AcDbEntity
  8
0
100
AcDbBlockBegin
  2
BLOCK_148
 70
     0
 10
0.0
 20
0.0
 30
0.0
  3
BLOCK_148
  1

  0
LWPOLYLINE
  5
529
330
525
100
AcDbEntity
  8
mountain_fold
 62
     7
100
AcDbPolyline
 90
        2
 70
     0
 43
0.0
 10
159.9867892395172
 20
-206.1820746012323
 10
151.1435736384294
 20
-205.1385551787501
  0
ENDBLK
  5
528
330
525
100
AcDbEntity
  8
0
100
AcDbBlockEnd
  0
BLOCK
  5
52F
330
52D
100
AcDbEntity
  8
0
100
AcDbBlockBegin
  2
BLOCK_149
 70
     0
 10
0.0
 20
0.0
 30
0.0
  3
BLOCK_149
  1

  0
LWPOLYLINE
  5
531
330
52D
100
AcDbEntity
  8
mountain_fold
 62
     7
100
AcDbPolyline
 90
        2
 70
     0
 43
0.0
 10
133.625263095934
 20
-212.2543999035336
 10
128.3508219080164
 20
-234.4466714908675
  0
ENDBLK
  5
530
330
52D
100
AcDbEntity
  8
0
100
AcDbBlockEnd
  0
BLOCK
  5
537
330
535
100
AcDbEntity
  8
0
100
AcDbBlockBegin
  2
BLOCK_150
 70
     0
 10
0.0
 20
0.0
 30
0.0
  3
BLOCK_150
  1

  0
LWPOLYLINE
  5
539
330
535
100
AcDbEntity
  8
mountain_fold
 62
     7
100
AcDbPolyline
 90
        2
 70
     0
 43
0.0
 10
135.7484754434934
 20
-203.3216118198293
 10
133.625263095934
 20
-212.2543999035336
  0
ENDBLK
  5
538
330
535
100
AcDbEntity
  8
0
100
AcDbBlockEnd
  0
BLOCK
  5
53F
330
53D
100
AcDbEntity
  8
0
100
AcDbBlockBegin
  2
BLOCK_151
 70
     0
 10
0.0
 20
0.0
 30
0.0
  3
BLOCK_151
  1

  0
LWPOLYLINE
  5
541
330
53D
100
AcDbEntity
  8
mountain_fold
 62
     7
100
AcDbPolyline
 90
        2
 70
     0
 43
0.0
 10
128.3515109271135
 20
-234.4466714908675
 10
130.9046711912322
 20
-244.043673984128
  0
ENDBLK
  5
540
330
53D
100
AcDbEntity
  8
0
100
AcDbBlockEnd
  0
BLOCK
  5
547
330
545
100
AcDbEntity
  8
0
100
AcDbBlockBegin
  2
BLOCK_152
 70
     0
 10
0.0
 20
0.0
 30
0.0
  3
BLOCK_152
  1

  0
LWPOLYLINE
  5
549
330
545
100
AcDbEntity
  8
mountain_fold
 62
     7
100
AcDbPolyline
 90
        2
 70
     0
 43
0.0
 10
84.49734020239997
 20
-234.3753580143228
 10
81.91196829549424
 20
-243.9640922784187
  0
ENDBLK
  5
548
330
545
100
AcDbEntity
  8
0
100
AcDbBlockEnd
  0
BLOCK
  5
54F
330
54D
100
AcDbEntity
  8
0
100
AcDbBlockBegin
  2
BLOCK_153
 70
     0
 10
0.0
 20
0.0
 30
0.0
  3
BLOCK_153
  1

  0
LWPOLYLINE
  5
551
330
54D
100
AcDbEntity
  8
mountain_fold
 62
     7
100
AcDbPolyline
 90
        2
 70
     0
 43
0.0
 10
52.9533569203554
 20
-206.0070637505816
 10
39.51800129220383
 20
-219.4053846022667
  0
ENDBLK
  5
550
330
54D
100
AcDbEntity
  8
0
100
AcDbBlockEnd
  0
BLOCK
  5
557
330
555
100
AcDbEntity
  8
0
100
AcDbBlockBegin
  2
BLOCK_154
 70
     0
 10
0.0
 20
0.0
 30
0.0
  3
BLOCK_154
  1

  0
LWPOLYLINE
  5
559
330
555
100
AcDbEntity
  8
mountain_fold
 62
     7
100
AcDbPolyline
 90
        2
 70
     0
 43
0.0
 10
44.81983098922907
 20
-169.0129394108718
 10
15.07591009822755
 20
-176.944238237014
  0
ENDBLK
  5
558
330
555
100
AcDbEntity
  8
0
100
AcDbBlockEnd
  0
BLOCK
  5
55F
330
55D
100
AcDbEntity
  8
0
100
AcDbBlockBegin
  2
BLOCK_155
 70
     0
 10
0.0
 20
0.0
 30
0.0
  3
BLOCK_155
  1

  0
LWPOLYLINE
  5
561
330
55D
100
AcDbEntity
  8
mountain_fold
 62
     7
100
AcDbPolyline
 90
        2
 70
     0
 43
0.0
 10
154.0457220752039
 20
-150.5293131134094
 10
153.2058077958999
 20
-152.6032605955297
  0
ENDBLK
  5
560
330
55D
100
AcDbEntity
  8
0
100
AcDbBlockEnd
  0
BLOCK
  5
567
330
565
100
AcDbEntity
  8
0
100
AcDbBlockBegin
  2
BLOCK_156
 70
     0
 10
0.0
 20
0.0
 30
0.0
  3
BLOCK_156
  1

  0
LWPOLYLINE
  5
569
330
565
100
AcDbEntity
  8
mountain_fold
 62
     7
100
AcDbPolyline
 90
        2
 70
     0
 43
0.0
 10
159.2705538881337
 20
-138.4949055643346
 10
158.357259074994
 20
-139.9180745092913
  0
ENDBLK
  5
568
330
565
100
AcDbEntity
  8
0
100
AcDbBlockEnd
  0
BLOCK
  5
56F
330
56D
100
AcDbEntity
  8
0
100
AcDbBlockBegin
  2
BLOCK_157
 70
     0
 10
0.0
 20
0.0
 30
0.0
  3
BLOCK_157
  1

  0
LWPOLYLINE
  5
571
330
56D
100
AcDbEntity
  8
mountain_fold
 62
     7
100
AcDbPolyline
 90
        2
 70
     0
 43
0.0
 10
158.357259074994
 20
-139.9180745092913
 10
154.0457220752039
 20
-150.5293131134094
  0
ENDBLK
  5
570
330
56D
100
AcDbEntity
  8
0
100
AcDbBlockEnd
  0
BLOCK
  5
577
330
575
100
AcDbEntity
  8
0
100
AcDbBlockBegin
  2
BLOCK_158
 70
     0
 10
0.0
 20
0.0
 30
0.0
  3
BLOCK_158
  1

  0
LWPOLYLINE
  5
579
330
575
100
AcDbEntity
  8
mountain_fold
 62
     7
100
AcDbPolyline
 90
        2
 70
     0
 43
0.0
 10
198.0140977152534
 20
-128.0633286897724
 10
159.2557399775472
 20
-138.4404730556677
  0
ENDBLK
  5
578
330
575
100
AcDbEntity
  8
0
100
AcDbBlockEnd
  0
BLOCK
  5
57F
330
57D
100
AcDbEntity
  8
0
100
AcDbBlockBegin
  2
BLOCK_159
 70
     0
 10
0.0
 20
0.0
 30
0.0
  3
BLOCK_159
  1

  0
LWPOLYLINE
  5
581
330
57D
100
AcDbEntity
  8
mountain_fold
 62
     7
100
AcDbPolyline
 90
        2
 70
     0
 43
0.0
 10
153.2058077958999
 20
-152.6032605955297
 10
163.5903591170885
 20
-164.0203070336477
  0
ENDBLK
  5
580
330
57D
100
AcDbEntity
  8
0
100
AcDbBlockEnd
  0
BLOCK
  5
587
330
585
100
AcDbEntity
  8
0
100
AcDbBlockBegin
  2
BLOCK_160
 70
     0
 10
0.0
 20
0.0
 30
0.0
  3
BLOCK_160
  1

  0
LWPOLYLINE
  5
589
330
585
100
AcDbEntity
  8
mountain_fold
 62
     7
100
AcDbPolyline
 90
        2
 70
     0
 43
0.0
 10
144.1855142868703
 20
-130.8910630640654
 10
159.2705538881337
 20
-138.4949055643346
  0
ENDBLK
  5
588
330
585
100
AcDbEntity
  8
0
100
AcDbBlockEnd
  0
BLOCK
  5
58F
330
58D
100
AcDbEntity
  8
0
100
AcDbBlockBegin
  2
BLOCK_161
 70
     0
 10
0.0
 20
0.0
 30
0.0
  3
BLOCK_161
  1

  0
LWPOLYLINE
  5
591
330
58D
100
AcDbEntity
  8
mountain_fold
 62
     7
100
AcDbPolyline
 90
        2
 70
     0
 43
0.0
 10
173.5284260633886
 20
-85.62715926678766
 10
145.1870035444324
 20
-114.027665173316
  0
ENDBLK
  5
590
330
58D
100
AcDbEntity
  8
0
100
AcDbBlockEnd
  0
BLOCK
  5
597
330
595
100
AcDbEntity
  8
0
100
AcDbBlockBegin
  2
BLOCK_162
 70
     0
 10
0.0
 20
0.0
 30
0.0
  3
BLOCK_162
  1

  0
LWPOLYLINE
  5
599
330
595
100
AcDbEntity
  8
mountain_fold
 62
     7
100
AcDbPolyline
 90
        2
 70
     0
 43
0.0
 10
145.1870035444324
 20
-114.027665173316
 10
144.1855142868703
 20
-130.8910630640654
  0
ENDBLK
  5
598
330
595
100
AcDbEntity
  8
0
100
AcDbBlockEnd
  0
BLOCK
  5
59F
330
59D
100
AcDbEntity
  8
0
100
AcDbBlockBegin
  2
BLOCK_163
 70
     0
 10
0.0
 20
0.0
 30
0.0
  3
BLOCK_163
  1

  0
LWPOLYLINE
  5
5A1
330
59D
100
AcDbEntity
  8
mountain_fold
 62
     7
100
AcDbPolyline
 90
        2
 70
     0
 43
0.0
 10
128.3211940868433
 20
-114.9826456418273
 10
145.1870035444324
 20
-114.027665173316
  0
ENDBLK
  5
5A0
330
59D
100
AcDbEntity
  8
0
100
AcDbBlockEnd
  0
BLOCK
  5
5A7
330
5A5
100
AcDbEntity
  8
0
100
AcDbBlockBegin
  2
BLOCK_164
 70
     0
 10
0.0
 20
0.0
 30
0.0
  3
BLOCK_164
  1

  0
LWPOLYLINE
  5
5A9
330
5A5
100
AcDbEntity
  8
mountain_fold
 62
     7
100
AcDbPolyline
 90
        2
 70
     0
 43
0.0
 10
131.1099988821531
 20
-61.11134302942703
 10
120.759898515817
 20
-99.8764187033295
  0
ENDBLK
  5
5A8
330
5A5
100
AcDbEntity
  8
0
100
AcDbBlockEnd
  0
BLOCK
  5
5AF
330
5AD
100
AcDbEntity
  8
0
100
AcDbBlockBegin
  2
BLOCK_165
 70
     0
 10
0.0
 20
0.0
 30
0.0
  3
BLOCK_165
  1

  0
LWPOLYLINE
  5
5B1
330
5AD
100
AcDbEntity
  8
mountain_fold
 62
     7
100
AcDbPolyline
 90
        2
 70
     0
 43
0.0
 10
120.759898515817
 20
-99.8764187033295
 10
128.3211940868433
 20
-114.9826456418273
  0
ENDBLK
  5
5B0
330
5AD
100
AcDbEntity
  8
0
100
AcDbBlockEnd
  0
BLOCK
  5
5B7
330
5B5
100
AcDbEntity
  8
0
100
AcDbBlockBegin
  2
BLOCK_166
 70
     0
 10
0.0
 20
0.0
 30
0.0
  3
BLOCK_166
  1

  0
LWPOLYLINE
  5
5B9
330
5B5
100
AcDbEntity
  8
mountain_fold
 62
     7
100
AcDbPolyline
 90
        2
 70
     0
 43
0.0
 10
106.5843641226595
 20
-109.1335625269701
 10
120.732337751935
 20
-99.86918400281048
  0
ENDBLK
  5
5B8
330
5B5
100
AcDbEntity
  8
0
100
AcDbBlockEnd
  0
BLOCK
  5
5BF
330
5BD
100
AcDbEntity
  8
0
100
AcDbBlockBegin
  2
BLOCK_167
 70
     0
 10
0.0
 20
0.0
 30
0.0
  3
BLOCK_167
  1

  0
LWPOLYLINE
  5
5C1
330
5BD
100
AcDbEntity
  8
mountain_fold
 62
     7
100
AcDbPolyline
 90
        2
 70
     0
 43
0.0
 10
82.11677922209233
 20
-61.08171520825388
 10
92.47463105327023
 20
-99.84472382486522
  0
ENDBLK
  5
5C0
330
5BD
100
AcDbEntity
  8
0
100
AcDbBlockEnd
  0
BLOCK
  5
5C7
330
5C5
100
AcDbEntity
  8
0
100
AcDbBlockBegin
  2
BLOCK_168
 70
     0
 10
0.0
 20
0.0
 30
0.0
  3
BLOCK_168
  1

  0
LWPOLYLINE
  5
5C9
330
5C5
100
AcDbEntity
  8
mountain_fold
 62
     7
100
AcDbPolyline
 90
        2
 70
     0
 43
0.0
 10
92.47463105327023
 20
-99.84472382486522
 10
106.5843641226595
 20
-109.1335625269701
  0
ENDBLK
  5
5C8
330
5C5
100
AcDbEntity
  8
0
100
AcDbBlockEnd
  0
BLOCK
  5
5CF
330
5CD
100
AcDbEntity
  8
0
100
AcDbBlockBegin
  2
BLOCK_169
 70
     0
 10
0.0
 20
0.0
 30
0.0
  3
BLOCK_169
  1

  0
LWPOLYLINE
  5
5D1
330
5CD
100
AcDbEntity
  8
mountain_fold
 62
     7
100
AcDbPolyline
 90
        2
 70
     0
 43
0.0
 10
84.8788845273914
 20
-114.9333807763882
 10
92.47463105327023
 20
-99.84472382486522
  0
ENDBLK
  5
5D0
330
5CD
100
AcDbEntity
  8
0
100
AcDbBlockEnd
  0
BLOCK
  5
5D7
330
5D5
100
AcDbEntity
  8
0
100
AcDbBlockBegin
  2
BLOCK_170
 70
     0
 10
0.0
 20
0.0
 30
0.0
  3
BLOCK_170
  1

  0
LWPOLYLINE
  5
5D9
330
5D5
100
AcDbEntity
  8
mountain_fold
 62
     7
100
AcDbPolyline
 90
        2
 70
     0
 43
0.0
 10
39.66786294581221
 20
-85.54516599423871
 10
68.01514212709344
 20
-113.9408487670877
  0
ENDBLK
  5
5D8
330
5D5
100
AcDbEntity
  8
0
100
AcDbBlockEnd
  0
BLOCK
  5
5DF
330
5DD
100
AcDbEntity
  8
0
100
AcDbBlockBegin
  2
BLOCK_171
 70
     0
 10
0.0
 20
0.0
 30
0.0
  3
BLOCK_171
  1

  0
LWPOLYLINE
  5
5E1
330
5DD
100
AcDbEntity
  8
mountain_fold
 62
     7
100
AcDbPolyline
 90
        2
 70
     0
 43
0.0
 10
68.01514212709344
 20
-113.9408487670877
 10
84.8788845273914
 20
-114.9333807763882
  0
ENDBLK
  5
5E0
330
5DD
100
AcDbEntity
  8
0
100
AcDbBlockEnd
  0
BLOCK
  5
5E7
330
5E5
100
AcDbEntity
  8
0
100
AcDbBlockBegin
  2
BLOCK_172
 70
     0
 10
0.0
 20
0.0
 30
0.0
  3
BLOCK_172
  1

  0
LWPOLYLINE
  5
5E9
330
5E5
100
AcDbEntity
  8
mountain_fold
 62
     7
100
AcDbPolyline
 90
        2
 70
     0
 43
0.0
 10
68.97804631522078
 20
-130.8063137151282
 10
68.01514212709344
 20
-113.9408487670877
  0
ENDBLK
  5
5E8
330
5E5
100
AcDbEntity
  8
0
100
AcDbBlockEnd
  0
BLOCK
  5
5EF
330
5ED
100
AcDbEntity
  8
0
100
AcDbBlockBegin
  2
BLOCK_173
 70
     0
 10
0.0
 20
0.0
 30
0.0
  3
BLOCK_173
  1

  0
LWPOLYLINE
  5
5F1
330
5ED
100
AcDbEntity
  8
mountain_fold
 62
     7
100
AcDbPolyline
 90
        2
 70
     0
 43
0.0
 10
15.13103162599155
 20
-127.9511908317275
 10
53.87629800085385
 20
-138.3758775153192
  0
ENDBLK
  5
5F0
330
5ED
100
AcDbEntity
  8
0
100
AcDbBlockEnd
  0
BLOCK
  5
5F7
330
5F5
100
AcDbEntity
  8
0
100
AcDbBlockBegin
  2
BLOCK_174
 70
     0
 10
0.0
 20
0.0
 30
0.0
  3
BLOCK_174
  1

  0
LWPOLYLINE
  5
5F9
330
5F5
100
AcDbEntity
  8
mountain_fold
 62
     7
100
AcDbPolyline
 90
        2
 70
     0
 43
0.0
 10
53.87629800085385
 20
-138.3758775153192
 10
68.97804631522078
 20
-130.8063137151282
  0
ENDBLK
  5
5F8
330
5F5
100
AcDbEntity
  8
0
100
AcDbBlockEnd
  0
BLOCK
  5
5FF
330
5FD
100
AcDbEntity
  8
0
100
AcDbBlockBegin
  2
BLOCK_175
 70
     0
 10
0.0
 20
0.0
 30
0.0
  3
BLOCK_175
  1

  0
LWPOLYLINE
  5
601
330
5FD
100
AcDbEntity
  8
mountain_fold
 62
     7
100
AcDbPolyline
 90
        2
 70
     0
 43
0.0
 10
54.79321016425309
 20
-139.7744140275564
 10
53.87629800085385
 20
-138.3758775153192
  0
ENDBLK
  5
600
330
5FD
100
AcDbEntity
  8
0
100
AcDbBlockEnd
  0
BLOCK
  5
607
330
605
100
AcDbEntity
  8
0
100
AcDbBlockBegin
  2
BLOCK_176
 70
     0
 10
0.0
 20
0.0
 30
0.0
  3
BLOCK_176
  1

  0
LWPOLYLINE
  5
609
330
605
100
AcDbEntity
  8
mountain_fold
 62
     7
100
AcDbPolyline
 90
        2
 70
     0
 43
0.0
 10
95.04432777571807
 20
-109.4598130694232
 10
106.5574923778745
 20
-152.5505506346054
  0
ENDBLK
  5
608
330
605
100
AcDbEntity
  8
0
100
AcDbBlockEnd
  0
BLOCK
  5
60F
330
60D
100
AcDbEntity
  8
0
100
AcDbBlockBegin
  2
BLOCK_177
 70
     0
 10
0.0
 20
0.0
 30
0.0
  3
BLOCK_177
  1

  0
LWPOLYLINE
  5
611
330
60D
100
AcDbEntity
  8
mountain_fold
 62
     7
100
AcDbPolyline
 90
        2
 70
     0
 43
0.0
 10
106.5574923778745
 20
-152.5505506346054
 10
118.1688422013606
 20
-109.4861680498854
  0
ENDBLK
  5
610
330
60D
100
AcDbEntity
  8
0
100
AcDbBlockEnd
  0
BLOCK
  5
617
330
615
100
AcDbEntity
  8
0
100
AcDbBlockBegin
  2
BLOCK_178
 70
     0
 10
0.0
 20
0.0
 30
0.0
  3
BLOCK_178
  1

  0
LWPOLYLINE
  5
619
330
615
100
AcDbEntity
  8
mountain_fold
 62
     7
100
AcDbPolyline
 90
        2
 70
     0
 43
0.0
 10
106.5574923778745
 20
-152.5505506346054
 10
133.5818548928198
 20
-125.6569294933254
  0
ENDBLK
  5
618
330
615
100
AcDbEntity
  8
0
100
AcDbBlockEnd
  0
BLOCK
  5
61F
330
61D
100
AcDbEntity
  8
0
100
AcDbBlockBegin
  2
BLOCK_179
 70
     0
 10
0.0
 20
0.0
 30
0.0
  3
BLOCK_179
  1

  0
LWPOLYLINE
  5
621
330
61D
100
AcDbEntity
  8
mountain_fold
 62
     7
100
AcDbPolyline
 90
        2
 70
     0
 43
0.0
 10
77.14120006752025
 20
-144.6350992476954
 10
106.5574923778745
 20
-152.5505506346054
  0
ENDBLK
  5
620
330
61D
100
AcDbEntity
  8
0
100
AcDbBlockEnd
  0
BLOCK
  5
627
330
625
100
AcDbEntity
  8
0
100
AcDbBlockBegin
  2
BLOCK_180
 70
     0
 10
0.0
 20
0.0
 30
0.0
  3
BLOCK_180
  1

  0
LWPOLYLINE
  5
629
330
625
100
AcDbEntity
  8
mountain_fold
 62
     7
100
AcDbPolyline
 90
        2
 70
     0
 43
0.0
 10
106.5574923778745
 20
-152.5505506346054
 10
79.62287460031996
 20
-125.5685627941287
  0
ENDBLK
  5
628
330
625
100
AcDbEntity
  8
0
100
AcDbBlockEnd
  0
BLOCK
  5
62F
330
62D
100
AcDbEntity
  8
0
100
AcDbBlockBegin
  2
BLOCK_181
 70
     0
 10
0.0
 20
0.0
 30
0.0
  3
BLOCK_181
  1

  0
LWPOLYLINE
  5
631
330
62D
100
AcDbEntity
  8
mountain_fold
 62
     7
100
AcDbPolyline
 90
        2
 70
     0
 43
0.0
 10
106.5574923778745
 20
-152.5505506346054
 10
136.0003119234652
 20
-144.7322509403794
  0
ENDBLK
  5
630
330
62D
100
AcDbEntity
  8
0
100
AcDbBlockEnd
  0
BLOCK
  5
637
330
635
100
AcDbEntity
  8
0
100
AcDbBlockBegin
  2
BLOCK_182
 70
     0
 10
0.0
 20
0.0
 30
0.0
  3
BLOCK_182
  1

  0
LWPOLYLINE
  5
639
330
635
100
AcDbEntity
  8
mountain_fold
 62
     7
100
AcDbPolyline
 90
        2
 70
     0
 43
0.0
 10
111.6142035311242
 20
-171.5540418407921
 10
106.5574923778745
 20
-152.5505506346054
  0
ENDBLK
  5
638
330
635
100
AcDbEntity
  8
0
100
AcDbBlockEnd
  0
BLOCK
  5
63F
330
63D
100
AcDbEntity
  8
0
100
AcDbBlockBegin
  2
BLOCK_183
 70
     0
 10
0.0
 20
0.0
 30
0.0
  3
BLOCK_183
  1

  0
LWPOLYLINE
  5
641
330
63D
100
AcDbEntity
  8
mountain_fold
 62
     7
100
AcDbPolyline
 90
        2
 70
     0
 43
0.0
 10
106.5574923778745
 20
-152.5505506346054
 10
101.4384249963418
 20
-171.5375053824629
  0
ENDBLK
  5
640
330
63D
100
AcDbEntity
  8
0
100
AcDbBlockEnd
  0
BLOCK
  5
647
330
645
100
AcDbEntity
  8
0
100
AcDbBlockBegin
  2
BLOCK_184
 70
     0
 10
0.0
 20
0.0
 30
0.0
  3
BLOCK_184
  1

  0
LWPOLYLINE
  5
649
330
645
100
AcDbEntity
  8
mountain_fold
 62
     7
100
AcDbPolyline
 90
        2
 70
     0
 43
0.0
 10
121.560538706589
 20
-167.6104410388266
 10
106.5574923778745
 20
-152.5505506346054
  0
ENDBLK
  5
648
330
645
100
AcDbEntity
  8
0
100
AcDbBlockEnd
  0
BLOCK
  5
64F
330
64D
100
AcDbEntity
  8
0
100
AcDbBlockBegin
  2
BLOCK_185
 70
     0
 10
0.0
 20
0.0
 30
0.0
  3
BLOCK_185
  1

  0
LWPOLYLINE
  5
651
330
64D
100
AcDbEntity
  8
mountain_fold
 62
     7
100
AcDbPolyline
 90
        2
 70
     0
 43
0.0
 10
106.5574923778745
 20
-152.5505506346054
 10
91.50569794804374
 20
-167.560831663839
  0
ENDBLK
  5
650
330
64D
100
AcDbEntity
  8
0
100
AcDbBlockEnd
  0
BLOCK
  5
657
330
655
100
AcDbEntity
  8
0
100
AcDbBlockBegin
  2
BLOCK_186
 70
     0
 10
0.0
 20
0.0
 30
0.0
  3
BLOCK_186
  1

  0
LWPOLYLINE
  5
659
330
655
100
AcDbEntity
  8
mountain_fold
 62
     7
100
AcDbPolyline
 90
        2
 70
     0
 43
0.0
 10
130.426836447428
 20
-158.9994248734446
 10
106.5574923778745
 20
-152.5505506346054
  0
ENDBLK
  5
658
330
655
100
AcDbEntity
  8
0
100
AcDbBlockEnd
  0
BLOCK
  5
65F
330
65D
100
AcDbEntity
  8
0
100
AcDbBlockBegin
  2
BLOCK_187
 70
     0
 10
0.0
 20
0.0
 30
0.0
  3
BLOCK_187
  1

  0
LWPOLYLINE
  5
661
330
65D
100
AcDbEntity
  8
mountain_fold
 62
     7
100
AcDbPolyline
 90
        2
 70
     0
 43
0.0
 10
106.5574923778745
 20
-152.5505506346054
 10
82.66747773540952
 20
-158.9208766963809
  0
ENDBLK
  5
660
330
65D
100
AcDbEntity
  8
0
100
AcDbBlockEnd
  0
BLOCK
  5
667
330
665
100
AcDbEntity
  8
0
100
AcDbBlockBegin
  2
BLOCK_188
 70
     0
 10
0.0
 20
0.0
 30
0.0
  3
BLOCK_188
  1

  0
LWPOLYLINE
  5
669
330
665
100
AcDbEntity
  8
mountain_fold
 62
     7
100
AcDbPolyline
 90
        2
 70
     0
 43
0.0
 10
106.530276123541
 20
-169.3164523231223
 10
106.5040933978532
 20
-185.0908555309842
  0
ENDBLK
  5
668
330
665
100
AcDbEntity
  8
0
100
AcDbBlockEnd
  0
BLOCK
  5
66F
330
66D
100
AcDbEntity
  8
0
100
AcDbBlockBegin
  2
BLOCK_189
 70
     0
 10
0.0
 20
0.0
 30
0.0
  3
BLOCK_189
  1

  0
LWPOLYLINE
  5
671
330
66D
100
AcDbEntity
  8
mountain_fold
 62
     7
100
AcDbPolyline
 90
        2
 70
     0
 43
0.0
 10
106.5040933978532
 20
-185.0908555309842
 10
116.4821234517823
 20
-189.8464653388231
  0
ENDBLK
  5
670
330
66D
100
AcDbEntity
  8
0
100
AcDbBlockEnd
  0
BLOCK
  5
677
330
675
100
AcDbEntity
  8
0
100
AcDbBlockBegin
  2
BLOCK_190
 70
     0
 10
0.0
 20
0.0
 30
0.0
  3
BLOCK_190
  1

  0
LWPOLYLINE
  5
679
330
675
100
AcDbEntity
  8
mountain_fold
 62
     7
100
AcDbPolyline
 90
        2
 70
     0
 43
0.0
 10
123.200404157568
 20
-181.4979654494172
 10
115.1778103010667
 20
-167.5436061864127
  0
ENDBLK
  5
678
330
675
100
AcDbEntity
  8
0
100
AcDbBlockEnd
  0
BLOCK
  5
67F
330
67D
100
AcDbEntity
  8
0
100
AcDbBlockBegin
  2
BLOCK_191
 70
     0
 10
0.0
 20
0.0
 30
0.0
  3
BLOCK_191
  1

  0
LWPOLYLINE
  5
681
330
67D
100
AcDbEntity
  8
mountain_fold
 62
     7
100
AcDbPolyline
 90
        2
 70
     0
 43
0.0
 10
116.4821234517823
 20
-189.8464653388231
 10
123.200404157568
 20
-181.4986544685142
  0
ENDBLK
  5
680
330
67D
100
AcDbEntity
  8
0
100
AcDbBlockEnd
  0
BLOCK
  5
687
330
685
100
AcDbEntity
  8
0
100
AcDbBlockBegin
  2
BLOCK_192
 70
     0
 10
0.0
 20
0.0
 30
0.0
  3
BLOCK_192
  1

  0
LWPOLYLINE
  5
689
330
685
100
AcDbEntity
  8
mountain_fold
 62
     7
100
AcDbPolyline
 90
        2
 70
     0
 43
0.0
 10
123.200404157568
 20
-181.4986544685142
 10
135.6323757256405
 20
-181.7349880188024
  0
ENDBLK
  5
688
330
685
100
AcDbEntity
  8
0
100
AcDbBlockEnd
  0
BLOCK
  5
68F
330
68D
100
AcDbEntity
  8
0
100
AcDbBlockBegin
  2
BLOCK_193
 70
     0
 10
0.0
 20
0.0
 30
0.0
  3
BLOCK_193
  1

  0
LWPOLYLINE
  5
691
330
68D
100
AcDbEntity
  8
mountain_fold
 62
     7
100
AcDbPolyline
 90
        2
 70
     0
 43
0.0
 10
97.88859860834037
 20
-167.5150118938851
 10
89.81966821756245
 20
-181.4435329407502
  0
ENDBLK
  5
690
330
68D
100
AcDbEntity
  8
0
100
AcDbBlockEnd
  0
BLOCK
  5
697
330
695
100
AcDbEntity
  8
0
100
AcDbBlockBegin
  2
BLOCK_194
 70
     0
 10
0.0
 20
0.0
 30
0.0
  3
BLOCK_194
  1

  0
LWPOLYLINE
  5
699
330
695
100
AcDbEntity
  8
mountain_fold
 62
     7
100
AcDbPolyline
 90
        2
 70
     0
 43
0.0
 10
137.6653265714864
 20
-170.5928602004074
 10
122.9285861237817
 20
-162.0462673205996
  0
ENDBLK
  5
698
330
695
100
AcDbEntity
  8
0
100
AcDbBlockEnd
  0
BLOCK
  5
69F
330
69D
100
AcDbEntity
  8
0
100
AcDbBlockBegin
  2
BLOCK_195
 70
     0
 10
0.0
 20
0.0
 30
0.0
  3
BLOCK_195
  1

  0
LWPOLYLINE
  5
6A1
330
69D
100
AcDbEntity
  8
mountain_fold
 62
     7
100
AcDbPolyline
 90
        2
 70
     0
 43
0.0
 10
135.6323757256405
 20
-181.7349880188024
 10
137.6653265714864
 20
-170.5928602004074
  0
ENDBLK
  5
6A0
330
69D
100
AcDbEntity
  8
0
100
AcDbBlockEnd
  0
BLOCK
  5
6A7
330
6A5
100
AcDbEntity
  8
0
100
AcDbBlockBegin
  2
BLOCK_196
 70
     0
 10
0.0
 20
0.0
 30
0.0
  3
BLOCK_196
  1

  0
LWPOLYLINE
  5
6A9
330
6A5
100
AcDbEntity
  8
mountain_fold
 62
     7
100
AcDbPolyline
 90
        2
 70
     0
 43
0.0
 10
137.6653265714864
 20
-170.5928602004074
 10
151.5842013509929
 20
-164.7158718121196
  0
ENDBLK
  5
6A8
330
6A5
100
AcDbEntity
  8
0
100
AcDbBlockEnd
  0
BLOCK
  5
6AF
330
6AD
100
AcDbEntity
  8
0
100
AcDbBlockBegin
  2
BLOCK_197
 70
     0
 10
0.0
 20
0.0
 30
0.0
  3
BLOCK_197
  1

  0
LWPOLYLINE
  5
6B1
330
6AD
100
AcDbEntity
  8
mountain_fold
 62
     7
100
AcDbPolyline
 90
        2
 70
     0
 43
0.0
 10
90.1555650273743
 20
-161.9918348119326
 10
75.39160832533612
 20
-170.4901963549469
  0
ENDBLK
  5
6B0
330
6AD
100
AcDbEntity
  8
0
100
AcDbBlockEnd
  0
BLOCK
  5
6B7
330
6B5
100
AcDbEntity
  8
0
100
AcDbBlockBegin
  2
BLOCK_198
 70
     0
 10
0.0
 20
0.0
 30
0.0
  3
BLOCK_198
  1

  0
LWPOLYLINE
  5
6B9
330
6B5
100
AcDbEntity
  8
mountain_fold
 62
     7
100
AcDbPolyline
 90
        2
 70
     0
 43
0.0
 10
121.2208522917434
 20
-127.299895530241
 10
128.3211940868433
 20
-114.9826456418273
  0
ENDBLK
  5
6B8
330
6B5
100
AcDbEntity
  8
0
100
AcDbBlockEnd
  0
BLOCK
  5
6BF
330
6BD
100
AcDbEntity
  8
0
100
AcDbBlockBegin
  2
BLOCK_199
 70
     0
 10
0.0
 20
0.0
 30
0.0
  3
BLOCK_199
  1

  0
LWPOLYLINE
  5
6C1
330
6BD
100
AcDbEntity
  8
mountain_fold
 62
     7
100
AcDbPolyline
 90
        2
 70
     0
 43
0.0
 10
128.6636365780772
 20
-139.8564073001054
 10
144.1855142868703
 20
-130.8910630640654
  0
ENDBLK
  5
6C0
330
6BD
100
AcDbEntity
  8
0
100
AcDbBlockEnd
  0
BLOCK
  5
6C7
330
6C5
100
AcDbEntity
  8
0
100
AcDbBlockBegin
  2
BLOCK_200
 70
     0
 10
0.0
 20
0.0
 30
0.0
  3
BLOCK_200
  1

  0
LWPOLYLINE
  5
6C9
330
6C5
100
AcDbEntity
  8
mountain_fold
 62
     7
100
AcDbPolyline
 90
        2
 70
     0
 43
0.0
 10
146.7431531751198
 20
-152.6373670408337
 10
128.2808864696659
 20
-152.5977484427534
  0
ENDBLK
  5
6C8
330
6C5
100
AcDbEntity
  8
0
100
AcDbBlockEnd
  0
BLOCK
  5
6CF
330
6CD
100
AcDbEntity
  8
0
100
AcDbBlockBegin
  2
BLOCK_201
 70
     0
 10
0.0
 20
0.0
 30
0.0
  3
BLOCK_201
  1

  0
LWPOLYLINE
  5
6D1
330
6CD
100
AcDbEntity
  8
mountain_fold
 62
     7
100
AcDbPolyline
 90
        2
 70
     0
 43
0.0
 10
151.5842013509929
 20
-164.7158718121196
 10
146.7431531751198
 20
-152.6373670408337
  0
ENDBLK
  5
6D0
330
6CD
100
AcDbEntity
  8
0
100
AcDbBlockEnd
  0
BLOCK
  5
6D7
330
6D5
100
AcDbEntity
  8
0
100
AcDbBlockBegin
  2
BLOCK_202
 70
     0
 10
0.0
 20
0.0
 30
0.0
  3
BLOCK_202
  1

  0
LWPOLYLINE
  5
6D9
330
6D5
100
AcDbEntity
  8
mountain_fold
 62
     7
100
AcDbPolyline
 90
        2
 70
     0
 43
0.0
 10
146.7431531751198
 20
-152.6373670408337
 10
158.3641492659645
 20
-139.9446017445277
  0
ENDBLK
  5
6D8
330
6D5
100
AcDbEntity
  8
0
100
AcDbBlockEnd
  0
BLOCK
  5
6DF
330
6DD
100
AcDbEntity
  8
0
100
AcDbBlockBegin
  2
BLOCK_203
 70
     0
 10
0.0
 20
0.0
 30
0.0
  3
BLOCK_203
  1

  0
LWPOLYLINE
  5
6E1
330
6DD
100
AcDbEntity
  8
mountain_fold
 62
     7
100
AcDbPolyline
 90
        2
 70
     0
 43
0.0
 10
84.49423961646324
 20
-139.7837157853666
 10
68.97804631522078
 20
-130.8063137151282
  0
ENDBLK
  5
6E0
330
6DD
100
AcDbEntity
  8
0
100
AcDbBlockEnd
  0
BLOCK
  5
6E7
330
6E5
100
AcDbEntity
  8
0
100
AcDbBlockBegin
  2
BLOCK_204
 70
     0
 10
0.0
 20
0.0
 30
0.0
  3
BLOCK_204
  1

  0
LWPOLYLINE
  5
6E9
330
6E5
100
AcDbEntity
  8
mountain_fold
 62
     7
100
AcDbPolyline
 90
        2
 70
     0
 43
0.0
 10
91.97802053907148
 20
-127.2518364482218
 10
84.8788845273914
 20
-114.9333807763882
  0
ENDBLK
  5
6E8
330
6E5
100
AcDbEntity
  8
0
100
AcDbBlockEnd
  0
BLOCK
  5
6EF
330
6ED
100
AcDbEntity
  8
0
100
AcDbBlockBegin
  2
BLOCK_205
 70
     0
 10
0.0
 20
0.0
 30
0.0
  3
BLOCK_205
  1

  0
LWPOLYLINE
  5
6F1
330
6ED
100
AcDbEntity
  8
mountain_fold
 62
     7
100
AcDbPolyline
 90
        2
 70
     0
 43
0.0
 10
84.83513181472874
 20
-152.5260904566601
 10
66.37252059972631
 20
-152.5050753742001
  0
ENDBLK
  5
6F0
330
6ED
100
AcDbEntity
  8
0
100
AcDbBlockEnd
  0
BLOCK
  5
6F7
330
6F5
100
AcDbEntity
  8
0
100
AcDbBlockBegin
  2
BLOCK_206
 70
     0
 10
0.0
 20
0.0
 30
0.0
  3
BLOCK_206
  1

  0
LWPOLYLINE
  5
6F9
330
6F5
100
AcDbEntity
  8
mountain_fold
 62
     7
100
AcDbPolyline
 90
        2
 70
     0
 43
0.0
 10
106.5767849125919
 20
-121.7090223220033
 10
106.5843641226595
 20
-109.1335625269701
  0
ENDBLK
  5
6F8
330
6F5
100
AcDbEntity
  8
0
100
AcDbBlockEnd
  0
BLOCK
  5
6FF
330
6FD
100
AcDbEntity
  8
0
100
AcDbBlockBegin
  2
BLOCK_207
 70
     0
 10
0.0
 20
0.0
 30
0.0
  3
BLOCK_207
  1

  0
LWPOLYLINE
  5
701
330
6FD
100
AcDbEntity
  8
mountain_fold
 62
     7
100
AcDbPolyline
 90
        2
 70
     0
 43
0.0
 10
149.9746527402841
 20
-152.6442572318041
 10
153.2058077958999
 20
-152.6032605955297
  0
ENDBLK
  5
700
330
6FD
100
AcDbEntity
  8
0
100
AcDbBlockEnd
  0
BLOCK
  5
707
330
705
100
AcDbEntity
  8
0
100
AcDbBlockBegin
  2
BLOCK_208
 70
     0
 10
0.0
 20
0.0
 30
0.0
  3
BLOCK_208
  1

  0
LWPOLYLINE
  5
709
330
705
100
AcDbEntity
  8
mountain_fold
 62
     7
100
AcDbPolyline
 90
        2
 70
     0
 43
0.0
 10
144.1148898294227
 20
-174.3332003687431
 10
152.2814886772074
 20
-179.0695176418646
  0
ENDBLK
  5
708
330
705
100
AcDbEntity
  8
0
100
AcDbBlockEnd
  0
BLOCK
  5
70F
330
70D
100
AcDbEntity
  8
0
100
AcDbBlockBegin
  2
BLOCK_209
 70
     0
 10
0.0
 20
0.0
 30
0.0
  3
BLOCK_209
  1

  0
LWPOLYLINE
  5
711
330
70D
100
AcDbEntity
  8
mountain_fold
 62
     7
100
AcDbPolyline
 90
        2
 70
     0
 43
0.0
 10
151.5842013509929
 20
-164.7155273025711
 10
159.2247341181799
 20
-166.7794840077843
  0
ENDBLK
  5
710
330
70D
100
AcDbEntity
  8
0
100
AcDbBlockEnd
  0
BLOCK
  5
717
330
715
100
AcDbEntity
  8
0
100
AcDbBlockBegin
  2
BLOCK_210
 70
     0
 10
0.0
 20
0.0
 30
0.0
  3
BLOCK_210
  1

  0
LWPOLYLINE
  5
719
330
715
100
AcDbEntity
  8
mountain_fold
 62
     7
100
AcDbPolyline
 90
        2
 70
     0
 43
0.0
 10
135.6323757256405
 20
-181.7349880188024
 10
145.0609130496723
 20
-191.1996988454293
  0
ENDBLK
  5
718
330
715
100
AcDbEntity
  8
0
100
AcDbBlockEnd
  0
BLOCK
  5
71F
330
71D
100
AcDbEntity
  8
0
100
AcDbBlockBegin
  2
BLOCK_211
 70
     0
 10
0.0
 20
0.0
 30
0.0
  3
BLOCK_211
  1

  0
LWPOLYLINE
  5
721
330
71D
100
AcDbEntity
  8
mountain_fold
 62
     7
100
AcDbPolyline
 90
        2
 70
     0
 43
0.0
 10
116.4821234517823
 20
-189.8464653388231
 10
120.587299232006
 20
-205.2708468453837
  0
ENDBLK
  5
720
330
71D
100
AcDbEntity
  8
0
100
AcDbBlockEnd
  0
BLOCK
  5
727
330
725
100
AcDbEntity
  8
0
100
AcDbBlockBegin
  2
BLOCK_212
 70
     0
 10
0.0
 20
0.0
 30
0.0
  3
BLOCK_212
  1

  0
LWPOLYLINE
  5
729
330
725
100
AcDbEntity
  8
mountain_fold
 62
     7
100
AcDbPolyline
 90
        2
 70
     0
 43
0.0
 10
128.1982041780199
 20
-190.190285868251
 10
135.7484754434934
 20
-203.3216118198293
  0
ENDBLK
  5
728
330
725
100
AcDbEntity
  8
0
100
AcDbBlockEnd
  0
BLOCK
  5
72F
330
72D
100
AcDbEntity
  8
0
100
AcDbBlockBegin
  2
BLOCK_213
 70
     0
 10
0.0
 20
0.0
 30
0.0
  3
BLOCK_213
  1

  0
LWPOLYLINE
  5
731
330
72D
100
AcDbEntity
  8
mountain_fold
 62
     7
100
AcDbPolyline
 90
        2
 70
     0
 43
0.0
 10
197.9582871683924
 20
-177.241549977391
 10
168.2402044935301
 20
-169.2144774967589
  0
ENDBLK
  5
730
330
72D
100
AcDbEntity
  8
0
100
AcDbBlockEnd
  0
BLOCK
  5
737
330
735
100
AcDbEntity
  8
0
100
AcDbBlockBegin
  2
BLOCK_214
 70
     0
 10
0.0
 20
0.0
 30
0.0
  3
BLOCK_214
  1

  0
LWPOLYLINE
  5
739
330
735
100
AcDbEntity
  8
mountain_fold
 62
     7
100
AcDbPolyline
 90
        2
 70
     0
 43
0.0
 10
168.2415825317243
 20
-169.2151665158559
 10
163.5789903019872
 20
-164.0792181664455
  0
ENDBLK
  5
738
330
735
100
AcDbEntity
  8
0
100
AcDbBlockEnd
  0
BLOCK
  5
73F
330
73D
100
AcDbEntity
  8
0
100
AcDbBlockBegin
  2
BLOCK_215
 70
     0
 10
0.0
 20
0.0
 30
0.0
  3
BLOCK_215
  1

  0
LWPOLYLINE
  5
741
330
73D
100
AcDbEntity
  8
mountain_fold
 62
     7
100
AcDbPolyline
 90
        2
 70
     0
 43
0.0
 10
106.5040933978532
 20
-185.0908555309842
 10
106.3842040749664
 20
-195.795800732301
  0
ENDBLK
  5
740
330
73D
100
AcDbEntity
  8
0
100
AcDbBlockEnd
  0
ENDSEC
  0
SECTION
  2
ENTITIES
  0
TEXT
  5
7A9
330
1F
100
AcDbEntity
  8
0
 62
     7
100
AcDbText
 10
-0.6067048790896195
 20
2.327357329597049
 30
0.0
 40
0.15
  1
 Medallion_2
  7
style1
100
AcDbText
  0
LWPOLYLINE
  5
7AC
330
1F
100
AcDbEntity
  8
mountain_fold
 62
     7
 48
0.0
370
    50
100
AcDbPolyline
 90
        2
 70
     0
 43
0.0
 10
-0.0022560272258403
 20
-1.374779326384668
 10
-0.0073211722232287
 20
-1.82704728760126
  0
LWPOLYLINE
  5
7C6
330
1F
100
AcDbEntity
  8
valley_fold
  6
ACAD_ISO03W100
 62
     7
 48
0.005
370
    50
100
AcDbPolyline
 90
        2
 70
     0
 43
0.0
 10
-0.0022560272258403
 20
-1.374779326384668
 10
0.4193008536905723
 20
-1.575696744613821
  0
LWPOLYLINE
  5
7C7
330
1F
100
AcDbEntity
  8
valley_fold
  6
ACAD_ISO03W100
 62
     7
 48
0.005
370
    50
100
AcDbPolyline
 90
        2
 70
     0
 43
0.0
 10
-0.0011498461344672
 20
-0.708334328856779
 10
-0.0022560272258403
 20
-1.374779326384668
  0
LWPOLYLINE
  5
7F6
330
1F
100
AcDbEntity
  8
valley_fold
  6
ACAD_ISO03W100
 62
     7
 48
0.005
370
    50
100
AcDbPolyline
 90
        2
 70
     0
 43
0.0
 10
-0.0022414722114803
 20
-1.374750216355977
 10
-0.4244533287741206
 20
-1.574314018249594
  0
LWPOLYLINE
  5
810
330
1F
100
AcDbEntity
  8
valley_fold
  6
ACAD_ISO03W100
 62
     7
 48
0.005
370
    50
100
AcDbPolyline
 90
        2
 70
     0
 43
0.0
 10
-0.0042063991501209
 20
-2.576077436609324
 10
-0.0029983329582137
 20
-1.834281129738315
  0
LWPOLYLINE
  5
812
330
1F
100
AcDbEntity
  8
valley_fold
  6
ACAD_ISO03W100
 62
     7
 48
0.005
370
    50
100
AcDbPolyline
 90
        5
 70
     0
 43
0.0
 10
-0.9320303445597204
 20
-3.456976015721409
 10
-0.2420498888112519
 20
-2.801883929394534
 10
-0.0041918441357609
 20
-2.576048326580604
 10
0.7302396254689541
 20
-3.277934784075767
 10
0.9207647634448505
 20
-3.460018013722731
  0
LWPOLYLINE
  5
813
330
1F
100
AcDbEntity
  8
mountain_fold
 62
     7
 48
0.0
370
    50
100
AcDbPolyline
 90
        2
 70
     0
 43
0.0
 10
-0.0073211722232287
 20
-1.82704728760126
 10
0.5927092947787998
 20
-2.227382957580402
  0
LWPOLYLINE
  5
843
330
1F
100
AcDbEntity
  8
valley_fold
  6
ACAD_ISO03W100
 62
     7
 48
0.005
370
    50
100
AcDbPolyline
 90
        2
 70
     0
 43
0.0
 10
-0.0003246615539095
 20
-0.199999736487015
 10
-0.0011498461344672
 20
-0.708334328856779
  0
LWPOLYLINE
  5
859
330
1F
100
AcDbEntity
  8
0
 62
     7
 48
0.0
370
    50
100
AcDbPolyline
 90
        2
 70
     0
 43
0.0
 10
-0.0051815851122683
 20
-3.183341745748407
 10
-0.0041918441357609
 20
-2.576048326580604
  0
LWPOLYLINE
  5
868
330
1F
100
AcDbEntity
  8
mountain_fold
 62
     7
 48
0.0
370
    50
100
AcDbPolyline
 90
        2
 70
     0
 43
0.0
 10
-0.0029983329582137
 20
-1.834281129738315
 10
-0.5999868019589343
 20
-2.225388920613056
  0
LWPOLYLINE
  5
86A
330
1F
100
AcDbEntity
  8
hide
 62
     9
100
AcDbPolyline
 90
        2
 70
     0
 43
0.0
 10
3.863672226975992
 20
-1.035312726460176
 10
3.183341745748379
 20
-0.0003347653303081
  0
LWPOLYLINE
  5
86B
330
1F
100
AcDbEntity
  8
hide
 62
     9
100
AcDbPolyline
 90
        2
 70
     0
 43
0.0
 10
-3.862631543449239
 20
1.039286245380509
 10
-3.183363578269933
 20
0.0035805335326131
  0
LWPOLYLINE
  5
86C
330
1F
100
AcDbEntity
  8
hide
 62
     9
100
AcDbPolyline
 90
        2
 70
     0
 43
0.0
 10
-3.183363578269933
 20
0.0035805335326131
 10
-3.864960345746894
 20
-1.030596901807456
  0
LWPOLYLINE
  5
86D
330
1F
100
AcDbEntity
  8
hide
 62
     9
100
AcDbPolyline
 90
        2
 70
     0
 43
0.0
 10
-2.755351548484739
 20
1.594298052966223
 10
-3.862631543449239
 20
1.039286245380509
  0
LWPOLYLINE
  5
86E
330
1F
100
AcDbEntity
  8
hide
 62
     9
100
AcDbPolyline
 90
        2
 70
     0
 43
0.0
 10
-2.825987033175124
 20
2.830877518000164
 10
-2.755351548484739
 20
1.594298052966223
  0
LWPOLYLINE
  5
86F
330
1F
100
AcDbEntity
  8
hide
 62
     9
100
AcDbPolyline
 90
        2
 70
     0
 43
0.0
 10
-1.589516730748883
 20
2.758117001213179
 10
-2.825987033175124
 20
2.830877518000164
  0
LWPOLYLINE
  5
870
330
1F
100
AcDbEntity
  8
hide
 62
     9
100
AcDbPolyline
 90
        2
 70
     0
 43
0.0
 10
-1.032583661267622
 20
3.864421810215532
 10
-1.589516730748883
 20
2.758117001213179
  0
LWPOLYLINE
  5
871
330
1F
100
AcDbEntity
  8
hide
 62
     9
100
AcDbPolyline
 90
        2
 70
     0
 43
0.0
 10
0.0019503719242664
 20
3.183349023255573
 10
-1.032583661267622
 20
3.864421810215532
  0
LWPOLYLINE
  5
872
330
1F
100
AcDbEntity
  8
hide
 62
     9
100
AcDbPolyline
 90
        2
 70
     0
 43
0.0
 10
1.037306763427508
 20
3.863170078980573
 10
0.0019503719242664
 20
3.183349023255573
  0
LWPOLYLINE
  5
873
330
1F
100
AcDbEntity
  8
hide
 62
     9
100
AcDbPolyline
 90
        2
 70
     0
 43
0.0
 10
1.592886216573276
 20
2.756159351781718
 10
1.037306763427508
 20
3.863170078980573
  0
LWPOLYLINE
  5
874
330
1F
100
AcDbEntity
  8
hide
 62
     9
100
AcDbPolyline
 90
        2
 70
     0
 43
0.0
 10
2.829422016564123
 20
2.827413424582402
 10
1.592886216573276
 20
2.756159351781718
  0
LWPOLYLINE
  5
875
330
1F
100
AcDbEntity
  8
hide
 62
     9
100
AcDbPolyline
 90
        2
 70
     0
 43
0.0
 10
2.757301920409005
 20
1.590928567141816
 10
2.829422016564123
 20
2.827413424582402
  0
LWPOLYLINE
  5
876
330
1F
100
AcDbEntity
  8
hide
 62
     9
100
AcDbPolyline
 90
        2
 70
     0
 43
0.0
 10
3.863905107205752
 20
1.034548588206234
 10
2.757301920409005
 20
1.590928567141816
  0
LWPOLYLINE
  5
877
330
1F
100
AcDbEntity
  8
hide
 62
     9
100
AcDbPolyline
 90
        2
 70
     0
 43
0.0
 10
3.183341745748379
 20
-0.0003347653303081
 10
3.863905107205752
 20
1.034548588206234
  0
LWPOLYLINE
  5
878
330
1F
100
AcDbEntity
  8
hide
 62
     9
100
AcDbPolyline
 90
        2
 70
     0
 43
0.0
 10
-3.864960345746894
 20
-1.030596901807456
 10
-2.758910249495826
 20
-1.588097616848756
  0
LWPOLYLINE
  5
879
330
1F
100
AcDbEntity
  8
hide
 62
     9
100
AcDbPolyline
 90
        2
 70
     0
 43
0.0
 10
-2.758910249495826
 20
-1.588097616848756
 10
-2.832318464421831
 20
-2.824516976724737
  0
LWPOLYLINE
  5
87A
330
1F
100
AcDbEntity
  8
hide
 62
     9
100
AcDbPolyline
 90
        2
 70
     0
 43
0.0
 10
-2.832318464421831
 20
-2.824516976724737
 10
-1.59570261185199
 20
-2.754521912666206
  0
LWPOLYLINE
  5
87B
330
1F
100
AcDbEntity
  8
hide
 62
     9
100
AcDbPolyline
 90
        2
 70
     0
 43
0.0
 10
-1.59570261185199
 20
-2.754521912666206
 10
-1.041236617304804
 20
-3.86208573041074
  0
LWPOLYLINE
  5
87C
330
1F
100
AcDbEntity
  8
hide
 62
     9
100
AcDbPolyline
 90
        2
 70
     0
 43
0.0
 10
-0.0051815851122683
 20
-3.183341745748407
 10
1.028631974868801
 20
-3.865447938727953
  0
LWPOLYLINE
  5
87D
330
1F
100
AcDbEntity
  8
hide
 62
     9
100
AcDbPolyline
 90
        2
 70
     0
 43
0.0
 10
-1.041236617304804
 20
-3.86208573041074
 10
-0.0051815851122683
 20
-3.183341745748407
  0
LWPOLYLINE
  5
87E
330
1F
100
AcDbEntity
  8
hide
 62
     9
100
AcDbPolyline
 90
        2
 70
     0
 43
0.0
 10
1.028631974868801
 20
-3.865447938727953
 10
1.586714890484515
 20
-2.759688942764114
  0
LWPOLYLINE
  5
87F
330
1F
100
AcDbEntity
  8
hide
 62
     9
100
AcDbPolyline
 90
        2
 70
     0
 43
0.0
 10
1.586714890484515
 20
-2.759688942764114
 10
2.823076030303056
 20
-2.833730300814778
  0
LWPOLYLINE
  5
880
330
1F
100
AcDbEntity
  8
hide
 62
     9
100
AcDbPolyline
 90
        2
 70
     0
 43
0.0
 10
2.823076030303056
 20
-2.833730300814778
 10
2.753692276847658
 20
-1.597078060709037
  0
LWPOLYLINE
  5
881
330
1F
100
AcDbEntity
  8
hide
 62
     9
100
AcDbPolyline
 90
        2
 70
     0
 43
0.0
 10
2.753692276847658
 20
-1.597078060709037
 10
3.861547194879392
 20
-1.04315787920035
  0
POINT
  5
89F
330
1F
100
AcDbEntity
  8
0
100
AcDbPoint
 10
0.0
 20
0.0
 30
0.0
  0
LWPOLYLINE
  5
993
330
1F
100
AcDbEntity
  8
mountain_fold
 62
     7
 48
0.0
370
    50
100
AcDbPolyline
 90
        2
 70
     0
 43
0.0
 10
0.9145439323583275
 20
-1.590033222514904
 10
0.5930906478747034
 20
-2.227236739530809
  0
LWPOLYLINE
  5
995
330
1F
100
AcDbEntity
  8
0
 62
     7
 48
0.0
370
    50
100
AcDbPolyline
 90
        2
 70
     0
 43
0.0
 10
1.587183488535103
 20
-2.75944561330175
 10
1.284393919780029
 20
-2.233019214263094
  0
LWPOLYLINE
  5
996
330
1F
100
AcDbEntity
  8
valley_fold
  6
ACAD_ISO03W100
 62
     7
 48
0.005
370
    50
100
AcDbPolyline
 90
        2
 70
     0
 43
0.0
 10
0.0997187030901873
 20
-0.1733671833249046
 10
0.3531713684654818
 20
-0.6140104462297984
  0
LWPOLYLINE
  5
99B
330
1F
100
AcDbEntity
  8
mountain_fold
 62
     7
 48
0.0
370
    50
100
AcDbPolyline
 90
        2
 70
     0
 43
0.0
 10
0.9071833226698373
 20
-1.585929951089752
 10
1.626992785127796
 20
-1.632615577831757
  0
LWPOLYLINE
  5
99C
330
1F
100
AcDbEntity
  8
valley_fold
  6
ACAD_ISO03W100
 62
     7
 48
0.005
370
    50
100
AcDbPolyline
 90
        5
 70
     0
 43
0.0
 10
0.9213260523740274
 20
-3.459844222168129
 10
1.191320612003508
 20
-2.547527605716652
 10
1.284393919780029
 20
-2.233019214263094
 10
2.271373458544033
 20
-2.473654982223791
 10
2.527414682914169
 20
-2.536081115713216
  0
LWPOLYLINE
  5
99D
330
1F
100
AcDbEntity
  8
valley_fold
  6
ACAD_ISO03W100
 62
     7
 48
0.005
370
    50
100
AcDbPolyline
 90
        2
 70
     0
 43
0.0
 10
1.284395869782201
 20
-2.233051701794636
 10
0.9145439323583275
 20
-1.590033222514904
  0
LWPOLYLINE
  5
99E
330
1F
100
AcDbEntity
  8
valley_fold
  6
ACAD_ISO03W100
 62
     7
 48
0.005
370
    50
100
AcDbPolyline
 90
        2
 70
     0
 43
0.0
 10
0.5930906478747034
 20
-2.227236739530809
 10
0.4195696436855343
 20
-1.575622597725157
  0
LWPOLYLINE
  5
99F
330
1F
100
AcDbEntity
  8
valley_fold
  6
ACAD_ISO03W100
 62
     7
 48
0.005
370
    50
100
AcDbPolyline
 90
        2
 70
     0
 43
0.0
 10
0.685433936300953
 20
-1.19168934732815
 10
0.4195696436855343
 20
-1.575622597725157
  0
LWPOLYLINE
  5
9A1
330
1F
100
AcDbEntity
  8
valley_fold
  6
ACAD_ISO03W100
 62
     7
 48
0.005
370
    50
100
AcDbPolyline
 90
        2
 70
     0
 43
0.0
 10
0.9213449598923091
 20
-3.459833305907352
 10
1.02930550326883
 20
-3.865282662781481
  0
LWPOLYLINE
  5
9A4
330
1F
100
AcDbEntity
  8
valley_fold
  6
ACAD_ISO03W100
 62
     7
 48
0.005
370
    50
100
AcDbPolyline
 90
        2
 70
     0
 43
0.0
 10
0.3531713684654818
 20
-0.6140104462297984
 10
0.6854358863031252
 20
-1.19172183485972
  0
LWPOLYLINE
  5
9A5
330
1F
100
AcDbEntity
  8
valley_fold
  6
ACAD_ISO03W100
 62
     7
 48
0.005
370
    50
100
AcDbPolyline
 90
        2
 70
     0
 43
0.0
 10
0.6854358863031252
 20
-1.19172183485972
 10
1.150973563431435
 20
-1.154942982650709
  0
LWPOLYLINE
  5
9A7
330
1F
100
AcDbEntity
  8
mountain_fold
 62
     7
 48
0.0
370
    50
100
AcDbPolyline
 90
        2
 70
     0
 43
0.0
 10
0.6854358863031252
 20
-1.19172183485972
 10
0.9071833226698373
 20
-1.585929951089752
  0
LWPOLYLINE
  5
9A9
330
1F
100
AcDbEntity
  8
mountain_fold
 62
     7
 48
0.0
370
    50
100
AcDbPolyline
 90
        2
 70
     0
 43
0.0
 10
1.58703488955669
 20
-0.9197371973799874
 10
1.62724993757186
 20
-1.632298272738353
  0
LWPOLYLINE
  5
9AB
330
1F
100
AcDbEntity
  8
0
 62
     7
 48
0.0
370
    50
100
AcDbPolyline
 90
        2
 70
     0
 43
0.0
 10
2.754264028189467
 20
-1.596158257213289
 10
2.228827370127305
 20
-1.291654406800574
  0
LWPOLYLINE
  5
9AC
330
1F
100
AcDbEntity
  8
valley_fold
  6
ACAD_ISO03W100
 62
     7
 48
0.005
370
    50
100
AcDbPolyline
 90
        2
 70
     0
 43
0.0
 10
0.1730425217709921
 20
-0.1002810333968281
 10
0.612860600095317
 20
-0.3551629603912829
  0
LWPOLYLINE
  5
9B1
330
1F
100
AcDbEntity
  8
mountain_fold
 62
     7
 48
0.0
370
    50
100
AcDbPolyline
 90
        2
 70
     0
 43
0.0
 10
1.578608778866524
 20
-0.9198639649314372
 10
2.225324872610542
 20
-0.6003901724526202
  0
LWPOLYLINE
  5
9B2
330
1F
100
AcDbEntity
  8
valley_fold
  6
ACAD_ISO03W100
 62
     7
 48
0.005
370
    50
100
AcDbPolyline
 90
        5
 70
     0
 43
0.0
 10
2.527813877608394
 20
-2.535649963347395
 10
2.305477716905386
 20
-1.610563317391012
 10
2.228827370127305
 20
-1.291654406800574
 10
3.203894607692745
 20
-1.006561325531748
 10
3.456845879158066
 20
-0.932603330808547
  0
LWPOLYLINE
  5
9B3
330
1F
100
AcDbEntity
  8
valley_fold
  6
ACAD_ISO03W100
 62
     7
 48
0.005
370
    50
100
AcDbPolyline
 90
        2
 70
     0
 43
0.0
 10
2.228845302644515
 20
-1.291681566827122
 10
1.58703488955669
 20
-0.9197371973799874
  0
LWPOLYLINE
  5
9B4
330
1F
100
AcDbEntity
  8
valley_fold
  6
ACAD_ISO03W100
 62
     7
 48
0.005
370
    50
100
AcDbPolyline
 90
        2
 70
     0
 43
0.0
 10
1.62724993757186
 20
-1.632298272738353
 10
1.151169268951022
 20
-1.154744374564046
  0
LWPOLYLINE
  5
9B5
330
1F
100
AcDbEntity
  8
valley_fold
  6
ACAD_ISO03W100
 62
     7
 48
0.005
370
    50
100
AcDbPolyline
 90
        2
 70
     0
 43
0.0
 10
1.189447875116655
 20
-0.6893162800550101
 10
1.151169268951022
 20
-1.154744374564046
  0
LWPOLYLINE
  5
9B7
330
1F
100
AcDbEntity
  8
valley_fold
  6
ACAD_ISO03W100
 62
     7
 48
0.005
370
    50
100
AcDbPolyline
 90
        2
 70
     0
 43
0.0
 10
2.527824793869172
 20
-2.535631055829099
 10
2.824046045476663
 20
-2.83278022714191
  0
LWPOLYLINE
  5
9BA
330
1F
100
AcDbEntity
  8
valley_fold
  6
ACAD_ISO03W100
 62
     7
 48
0.005
370
    50
100
AcDbPolyline
 90
        2
 70
     0
 43
0.0
 10
0.612860600095317
 20
-0.3551629603912829
 10
1.189465807633865
 20
-0.6893434400815579
  0
LWPOLYLINE
  5
9BB
330
1F
100
AcDbEntity
  8
valley_fold
  6
ACAD_ISO03W100
 62
     7
 48
0.005
370
    50
100
AcDbPolyline
 90
        2
 70
     0
 43
0.0
 10
1.189465807633865
 20
-0.6893434400815579
 10
1.574243836341281
 20
-0.4247231811823724
  0
LWPOLYLINE
  5
9BD
330
1F
100
AcDbEntity
  8
mountain_fold
 62
     7
 48
0.0
370
    50
100
AcDbPolyline
 90
        2
 70
     0
 43
0.0
 10
1.189465807633865
 20
-0.6893434400815579
 10
1.578608778866524
 20
-0.9198639649314372
  0
LWPOLYLINE
  5
9BF
330
1F
100
AcDbEntity
  8
mountain_fold
 62
     7
 48
0.0
370
    50
100
AcDbPolyline
 90
        2
 70
     0
 43
0.0
 10
1.8342811297383
 20
-0.0029983329582137
 10
2.225388920613042
 20
-0.5999868019589485
  0
LWPOLYLINE
  5
9C1
330
1F
100
AcDbEntity
  8
0
 62
     7
 48
0.0
370
    50
100
AcDbPolyline
 90
        2
 70
     0
 43
0.0
 10
3.183341745748393
 20
-0.0051815851122683
 10
2.576048326580604
 20
-0.0041918441357609
  0
LWPOLYLINE
  5
9C2
330
1F
100
AcDbEntity
  8
valley_fold
  6
ACAD_ISO03W100
 62
     7
 48
0.005
370
    50
100
AcDbPolyline
 90
        2
 70
     0
 43
0.0
 10
0.199999736487015
 20
-0.0003246615539095
 10
0.7083343288567648
 20
-0.0011498461344672
  0
LWPOLYLINE
  5
9C7
330
1F
100
AcDbEntity
  8
mountain_fold
 62
     7
 48
0.0
370
    50
100
AcDbPolyline
 90
        2
 70
     0
 43
0.0
 10
1.827047287601246
 20
-0.0073211722232145
 10
2.227382957580402
 20
0.5927092947787856
  0
LWPOLYLINE
  5
9C8
330
1F
100
AcDbEntity
  8
valley_fold
  6
ACAD_ISO03W100
 62
     7
 48
0.005
370
    50
100
AcDbPolyline
 90
        5
 70
     0
 43
0.0
 10
3.456976015721409
 20
-0.9320303445597062
 10
2.801883929394506
 20
-0.2420498888112661
 10
2.576048326580604
 20
-0.0041918441357609
 10
3.277934784075753
 20
0.7302396254689541
 10
3.460018013722702
 20
0.9207647634448505
  0
LWPOLYLINE
  5
9C9
330
1F
100
AcDbEntity
  8
valley_fold
  6
ACAD_ISO03W100
 62
     7
 48
0.005
370
    50
100
AcDbPolyline
 90
        2
 70
     0
 43
0.0
 10
2.576077436609324
 20
-0.0042063991501209
 10
1.8342811297383
 20
-0.0029983329582137
  0
LWPOLYLINE
  5
9CA
330
1F
100
AcDbEntity
  8
valley_fold
  6
ACAD_ISO03W100
 62
     7
 48
0.005
370
    50
100
AcDbPolyline
 90
        2
 70
     0
 43
0.0
 10
2.225388920613042
 20
-0.5999868019589485
 10
1.574314018249566
 20
-0.4244533287741206
  0
LWPOLYLINE
  5
9CB
330
1F
100
AcDbEntity
  8
valley_fold
  6
ACAD_ISO03W100
 62
     7
 48
0.005
370
    50
100
AcDbPolyline
 90
        2
 70
     0
 43
0.0
 10
1.374750216355948
 20
-0.0022414722114945
 10
1.574314018249566
 20
-0.4244533287741206
  0
LWPOLYLINE
  5
9CD
330
1F
100
AcDbEntity
  8
valley_fold
  6
ACAD_ISO03W100
 62
     7
 48
0.005
370
    50
100
AcDbPolyline
 90
        2
 70
     0
 43
0.0
 10
3.456976015721409
 20
-0.9320085120381804
 10
3.862085730410726
 20
-1.041236617304804
  0
LWPOLYLINE
  5
9D0
330
1F
100
AcDbEntity
  8
valley_fold
  6
ACAD_ISO03W100
 62
     7
 48
0.005
370
    50
100
AcDbPolyline
 90
        2
 70
     0
 43
0.0
 10
0.7083343288567648
 20
-0.0011498461344672
 10
1.374779326384668
 20
-0.0022560272258545
  0
LWPOLYLINE
  5
9D1
330
1F
100
AcDbEntity
  8
valley_fold
  6
ACAD_ISO03W100
 62
     7
 48
0.005
370
    50
100
AcDbPolyline
 90
        2
 70
     0
 43
0.0
 10
1.374779326384668
 20
-0.0022560272258545
 10
1.575696744613793
 20
0.4193008536905723
  0
LWPOLYLINE
  5
9D2
330
1F
100
AcDbEntity
  8
valley_fold
  6
ACAD_ISO03W100
 62
     7
 48
0.005
370
    50
100
AcDbPolyline
 90
        2
 70
     0
 43
0.0
 10
1.575696744613793
 20
0.4193008536905723
 10
2.227353847551682
 20
0.5927384048075055
  0
LWPOLYLINE
  5
9D3
330
1F
100
AcDbEntity
  8
mountain_fold
 62
     7
 48
0.0
370
    50
100
AcDbPolyline
 90
        2
 70
     0
 43
0.0
 10
1.374779326384668
 20
-0.0022560272258545
 10
1.827047287601246
 20
-0.0073211722232145
  0
LWPOLYLINE
  5
9D5
330
1F
100
AcDbEntity
  8
mountain_fold
 62
     7
 48
0.0
370
    50
100
AcDbPolyline
 90
        2
 70
     0
 43
0.0
 10
1.590033222514904
 20
0.9145439323583275
 10
2.227236739530795
 20
0.5930906478747034
  0
LWPOLYLINE
  5
9D7
330
1F
100
AcDbEntity
  8
0
 62
     7
 48
0.0
370
    50
100
AcDbPolyline
 90
        2
 70
     0
 43
0.0
 10
2.759445613301735
 20
1.587183488535089
 10
2.233019214263066
 20
1.284393919780029
  0
LWPOLYLINE
  5
9D8
330
1F
100
AcDbEntity
  8
valley_fold
  6
ACAD_ISO03W100
 62
     7
 48
0.005
370
    50
100
AcDbPolyline
 90
        2
 70
     0
 43
0.0
 10
0.173367183324902
 20
0.099718703090192
 10
0.6140104462297842
 20
0.353171368465496
  0
LWPOLYLINE
  5
9DD
330
1F
100
AcDbEntity
  8
mountain_fold
 62
     7
 48
0.0
370
    50
100
AcDbPolyline
 90
        2
 70
     0
 43
0.0
 10
1.585929951089738
 20
0.9071833226698231
 10
1.632615577831742
 20
1.626992785127782
  0
LWPOLYLINE
  5
9DE
330
1F
100
AcDbEntity
  8
valley_fold
  6
ACAD_ISO03W100
 62
     7
 48
0.005
370
    50
100
AcDbPolyline
 90
        5
 70
     0
 43
0.0
 10
3.459844222168101
 20
0.9213260523740132
 10
2.547527605716624
 20
1.191320612003522
 10
2.233019214263066
 20
1.284393919780029
 10
2.473654982223791
 20
2.271373458544019
 10
2.536081115713201
 20
2.527414682914155
  0
LWPOLYLINE
  5
9DF
330
1F
100
AcDbEntity
  8
valley_fold
  6
ACAD_ISO03W100
 62
     7
 48
0.005
370
    50
100
AcDbPolyline
 90
        2
 70
     0
 43
0.0
 10
2.233051701794622
 20
1.284395869782201
 10
1.590033222514904
 20
0.9145439323583275
  0
LWPOLYLINE
  5
9E0
330
1F
100
AcDbEntity
  8
valley_fold
  6
ACAD_ISO03W100
 62
     7
 48
0.005
370
    50
100
AcDbPolyline
 90
        2
 70
     0
 43
0.0
 10
2.227236739530795
 20
0.5930906478747034
 10
1.575622597725143
 20
0.4195696436855201
  0
LWPOLYLINE
  5
9E1
330
1F
100
AcDbEntity
  8
valley_fold
  6
ACAD_ISO03W100
 62
     7
 48
0.005
370
    50
100
AcDbPolyline
 90
        2
 70
     0
 43
0.0
 10
1.191689347328136
 20
0.6854339363009388
 10
1.575622597725143
 20
0.4195696436855201
  0
LWPOLYLINE
  5
9E3
330
1F
100
AcDbEntity
  8
valley_fold
  6
ACAD_ISO03W100
 62
     7
 48
0.005
370
    50
100
AcDbPolyline
 90
        2
 70
     0
 43
0.0
 10
3.459833305907338
 20
0.9213449598923091
 10
3.865282662781467
 20
1.02930550326883
  0
LWPOLYLINE
  5
9E6
330
1F
100
AcDbEntity
  8
valley_fold
  6
ACAD_ISO03W100
 62
     7
 48
0.005
370
    50
100
AcDbPolyline
 90
        2
 70
     0
 43
0.0
 10
0.6140104462297842
 20
0.353171368465496
 10
1.191721834859706
 20
0.685435886303111
  0
LWPOLYLINE
  5
9E7
330
1F
100
AcDbEntity
  8
valley_fold
  6
ACAD_ISO03W100
 62
     7
 48
0.005
370
    50
100
AcDbPolyline
 90
        2
 70
     0
 43
0.0
 10
1.191721834859706
 20
0.685435886303111
 10
1.154942982650695
 20
1.150973563431421
  0
LWPOLYLINE
  5
9E8
330
1F
100
AcDbEntity
  8
valley_fold
  6
ACAD_ISO03W100
 62
     7
 48
0.005
370
    50
100
AcDbPolyline
 90
        2
 70
     0
 43
0.0
 10
1.154942982650695
 20
1.150973563431421
 10
1.632575812793007
 20
1.627003440137798
  0
LWPOLYLINE
  5
9E9
330
1F
100
AcDbEntity
  8
mountain_fold
 62
     7
 48
0.0
370
    50
100
AcDbPolyline
 90
        2
 70
     0
 43
0.0
 10
1.191721834859706
 20
0.685435886303111
 10
1.585929951089738
 20
0.9071833226698231
  0
LWPOLYLINE
  5
9EB
330
1F
100
AcDbEntity
  8
mountain_fold
 62
     7
 48
0.0
370
    50
100
AcDbPolyline
 90
        2
 70
     0
 43
0.0
 10
0.9197371973799732
 20
1.58703488955669
 10
1.632298272738339
 20
1.62724993757186
  0
LWPOLYLINE
  5
9ED
330
1F
100
AcDbEntity
  8
0
 62
     7
 48
0.0
370
    50
100
AcDbPolyline
 90
        2
 70
     0
 43
0.0
 10
1.596158257213275
 20
2.754264028189481
 10
1.29165440680056
 20
2.228827370127305
  0
LWPOLYLINE
  5
9EE
330
1F
100
AcDbEntity
  8
valley_fold
  6
ACAD_ISO03W100
 62
     7
 48
0.005
370
    50
100
AcDbPolyline
 90
        2
 70
     0
 43
0.0
 10
0.1002810333968268
 20
0.1730425217709928
 10
0.3551629603912687
 20
0.6128606000953028
  0
LWPOLYLINE
  5
9F2
330
1F
100
AcDbEntity
  8
mountain_fold
 62
     7
 48
0.0
370
    50
100
AcDbPolyline
 90
        3
 70
     0
 43
0.0
 10
0.1416365211753481
 20
0.1412058634382622
 10
0.588385079328873
 20
0.5865960450833541
 10
1.154744374564032
 20
1.151169268951036
  0
LWPOLYLINE
  5
9F3
330
1F
100
AcDbEntity
  8
mountain_fold
 62
     7
 48
0.0
370
    50
100
AcDbPolyline
 90
        2
 70
     0
 43
0.0
 10
0.9198639649314088
 20
1.578608778866509
 10
0.6003901724525918
 20
2.225324872610542
  0
LWPOLYLINE
  5
9F4
330
1F
100
AcDbEntity
  8
valley_fold
  6
ACAD_ISO03W100
 62
     7
 48
0.005
370
    50
100
AcDbPolyline
 90
        5
 70
     0
 43
0.0
 10
2.535649963347367
 20
2.527813877608394
 10
1.610563317390983
 20
2.305477716905386
 10
1.29165440680056
 20
2.228827370127305
 10
1.00656132553172
 20
3.203894607692745
 10
0.9326033308085328
 20
3.456845879158066
  0
LWPOLYLINE
  5
9F5
330
1F
100
AcDbEntity
  8
valley_fold
  6
ACAD_ISO03W100
 62
     7
 48
0.005
370
    50
100
AcDbPolyline
 90
        2
 70
     0
 43
0.0
 10
1.291681566827122
 20
2.228845302644515
 10
0.9197371973799732
 20
1.58703488955669
  0
LWPOLYLINE
  5
9F6
330
1F
100
AcDbEntity
  8
valley_fold
  6
ACAD_ISO03W100
 62
     7
 48
0.005
370
    50
100
AcDbPolyline
 90
        2
 70
     0
 43
0.0
 10
1.632298272738339
 20
1.62724993757186
 10
1.154744374564032
 20
1.151169268951036
  0
LWPOLYLINE
  5
9F7
330
1F
100
AcDbEntity
  8
valley_fold
  6
ACAD_ISO03W100
 62
     7
 48
0.005
370
    50
100
AcDbPolyline
 90
        2
 70
     0
 43
0.0
 10
0.6893162800549959
 20
1.189447875116655
 10
1.154744374564032
 20
1.151169268951036
  0
LWPOLYLINE
  5
9F9
330
1F
100
AcDbEntity
  8
valley_fold
  6
ACAD_ISO03W100
 62
     7
 48
0.005
370
    50
100
AcDbPolyline
 90
        2
 70
     0
 43
0.0
 10
2.535631055829085
 20
2.527824793869172
 10
2.832780227141881
 20
2.824046045476649
  0
LWPOLYLINE
  5
9FC
330
1F
100
AcDbEntity
  8
valley_fold
  6
ACAD_ISO03W100
 62
     7
 48
0.005
370
    50
100
AcDbPolyline
 90
        2
 70
     0
 43
0.0
 10
0.3551629603912687
 20
0.6128606000953028
 10
0.6893434400815295
 20
1.189465807633865
  0
LWPOLYLINE
  5
9FD
330
1F
100
AcDbEntity
  8
valley_fold
  6
ACAD_ISO03W100
 62
     7
 48
0.005
370
    50
100
AcDbPolyline
 90
        2
 70
     0
 43
0.0
 10
0.6893434400815295
 20
1.189465807633865
 10
0.4247231811823582
 20
1.574243836341281
  0
LWPOLYLINE
  5
9FF
330
1F
100
AcDbEntity
  8
mountain_fold
 62
     7
 48
0.0
370
    50
100
AcDbPolyline
 90
        2
 70
     0
 43
0.0
 10
0.6893434400815295
 20
1.189465807633865
 10
0.9198639649314088
 20
1.578608778866509
  0
LWPOLYLINE
  5
A01
330
1F
100
AcDbEntity
  8
mountain_fold
 62
     7
 48
0.0
370
    50
100
AcDbPolyline
 90
        2
 70
     0
 43
0.0
 10
0.0029983329582137
 20
1.834281129738315
 10
0.5999868019589343
 20
2.225388920613028
  0
LWPOLYLINE
  5
A03
330
1F
100
AcDbEntity
  8
0
 62
     7
 48
0.0
370
    50
100
AcDbPolyline
 90
        2
 70
     0
 43
0.0
 10
0.0051815851122541
 20
3.183341745748379
 10
0.0041918441357467
 20
2.576048326580604
  0
LWPOLYLINE
  5
A04
330
1F
100
AcDbEntity
  8
valley_fold
  6
ACAD_ISO03W100
 62
     7
 48
0.005
370
    50
100
AcDbPolyline
 90
        2
 70
     0
 43
0.0
 10
0.0003246615539055
 20
0.199999736487015
 10
0.001149846134453
 20
0.7083343288567506
  0
LWPOLYLINE
  5
A08
330
1F
100
AcDbEntity
  8
mountain_fold
 62
     7
 48
0.0
370
    50
100
AcDbPolyline
 90
        3
 70
     0
 43
0.0
 10
-0.4193008536905865
 20
1.575696744613793
 10
-0.2136385007800072
 20
0.8028691471266995
 10
-0.051429152614078
 20
0.1932745256400797
  0
LWPOLYLINE
  5
A09
330
1F
100
AcDbEntity
  8
mountain_fold
 62
     7
 48
0.0
370
    50
100
AcDbPolyline
 90
        2
 70
     0
 43
0.0
 10
0.0073211722232145
 20
1.827047287601232
 10
-0.5927092947787998
 20
2.227382957580402
  0
LWPOLYLINE
  5
A0A
330
1F
100
AcDbEntity
  8
valley_fold
  6
ACAD_ISO03W100
 62
     7
 48
0.005
370
    50
100
AcDbPolyline
 90
        5
 70
     0
 43
0.0
 10
0.9320303445597062
 20
3.456976015721409
 10
0.2420498888112377
 20
2.801883929394506
 10
0.0041918441357467
 20
2.576048326580604
 10
-0.7302396254689683
 20
3.277934784075767
 10
-0.9207647634448647
 20
3.460018013722702
  0
LWPOLYLINE
  5
A0B
330
1F
100
AcDbEntity
  8
valley_fold
  6
ACAD_ISO03W100
 62
     7
 48
0.005
370
    50
100
AcDbPolyline
 90
        2
 70
     0
 43
0.0
 10
0.0042063991501067
 20
2.576077436609324
 10
0.0029983329582137
 20
1.834281129738315
  0
LWPOLYLINE
  5
A0C
330
1F
100
AcDbEntity
  8
valley_fold
  6
ACAD_ISO03W100
 62
     7
 48
0.005
370
    50
100
AcDbPolyline
 90
        2
 70
     0
 43
0.0
 10
0.5999868019589343
 20
2.225388920613028
 10
0.4244533287741064
 20
1.574314018249566
  0
LWPOLYLINE
  5
A0D
330
1F
100
AcDbEntity
  8
valley_fold
  6
ACAD_ISO03W100
 62
     7
 48
0.005
370
    50
100
AcDbPolyline
 90
        2
 70
     0
 43
0.0
 10
0.0022414722114803
 20
1.374750216355948
 10
0.4244533287741064
 20
1.574314018249566
  0
LWPOLYLINE
  5
A0F
330
1F
100
AcDbEntity
  8
valley_fold
  6
ACAD_ISO03W100
 62
     7
 48
0.005
370
    50
100
AcDbPolyline
 90
        2
 70
     0
 43
0.0
 10
0.9320085120381662
 20
3.456976015721409
 10
1.04123661730479
 20
3.862085730410711
  0
LWPOLYLINE
  5
A12
330
1F
100
AcDbEntity
  8
valley_fold
  6
ACAD_ISO03W100
 62
     7
 48
0.005
370
    50
100
AcDbPolyline
 90
        2
 70
     0
 43
0.0
 10
0.001149846134453
 20
0.7083343288567506
 10
0.0022560272258403
 20
1.374779326384668
  0
LWPOLYLINE
  5
A13
330
1F
100
AcDbEntity
  8
valley_fold
  6
ACAD_ISO03W100
 62
     7
 48
0.005
370
    50
100
AcDbPolyline
 90
        2
 70
     0
 43
0.0
 10
0.0022560272258403
 20
1.374779326384668
 10
-0.4193008536905865
 20
1.575696744613793
  0
LWPOLYLINE
  5
A14
330
1F
100
AcDbEntity
  8
valley_fold
  6
ACAD_ISO03W100
 62
     7
 48
0.005
370
    50
100
AcDbPolyline
 90
        2
 70
     0
 43
0.0
 10
-0.4193008536905865
 20
1.575696744613793
 10
-0.592738404807534
 20
2.227353847551682
  0
LWPOLYLINE
  5
A15
330
1F
100
AcDbEntity
  8
mountain_fold
 62
     7
 48
0.0
370
    50
100
AcDbPolyline
 90
        2
 70
     0
 43
0.0
 10
0.0022560272258403
 20
1.374779326384668
 10
0.0073211722232145
 20
1.827047287601232
  0
LWPOLYLINE
  5
A17
330
1F
100
AcDbEntity
  8
mountain_fold
 62
     7
 48
0.0
370
    50
100
AcDbPolyline
 90
        2
 70
     0
 43
0.0
 10
-0.9145439323583417
 20
1.590033222514904
 10
-0.5930906478747034
 20
2.227236739530781
  0
LWPOLYLINE
  5
A19
330
1F
100
AcDbEntity
  8
0
 62
     7
 48
0.0
370
    50
100
AcDbPolyline
 90
        2
 70
     0
 43
0.0
 10
-1.587183488535117
 20
2.759445613301721
 10
-1.284393919780029
 20
2.233019214263066
  0
LWPOLYLINE
  5
A1A
330
1F
100
AcDbEntity
  8
valley_fold
  6
ACAD_ISO03W100
 62
     7
 48
0.005
370
    50
100
AcDbPolyline
 90
        2
 70
     0
 43
0.0
 10
-0.0997187030901937
 20
0.1733671833249009
 10
-0.353171368465496
 20
0.61401044622977
  0
LWPOLYLINE
  5
A1F
330
1F
100
AcDbEntity
  8
mountain_fold
 62
     7
 48
0.0
370
    50
100
AcDbPolyline
 90
        2
 70
     0
 43
0.0
 10
-0.9071833226698515
 20
1.585929951089752
 10
-1.626992785127811
 20
1.632615577831728
  0
LWPOLYLINE
  5
A20
330
1F
100
AcDbEntity
  8
valley_fold
  6
ACAD_ISO03W100
 62
     7
 48
0.005
370
    50
100
AcDbPolyline
 90
        5
 70
     0
 43
0.0
 10
-0.9213260523740416
 20
3.459844222168101
 10
-1.191320612003522
 20
2.547527605716624
 10
-1.284393919780029
 20
2.233019214263066
 10
-2.271373458544047
 20
2.473654982223791
 10
-2.527414682914184
 20
2.536081115713216
  0
LWPOLYLINE
  5
A21
330
1F
100
AcDbEntity
  8
valley_fold
  6
ACAD_ISO03W100
 62
     7
 48
0.005
370
    50
100
AcDbPolyline
 90
        2
 70
     0
 43
0.0
 10
-1.284395869782215
 20
2.233051701794636
 10
-0.9145439323583417
 20
1.590033222514904
  0
LWPOLYLINE
  5
A23
330
1F
100
AcDbEntity
  8
valley_fold
  6
ACAD_ISO03W100
 62
     7
 48
0.005
370
    50
100
AcDbPolyline
 90
        2
 70
     0
 43
0.0
 10
-0.6854339363009672
 20
1.19168934732815
 10
-0.4195696436855485
 20
1.575622597725129
  0
LWPOLYLINE
  5
A25
330
1F
100
AcDbEntity
  8
valley_fold
  6
ACAD_ISO03W100
 62
     7
 48
0.005
370
    50
100
AcDbPolyline
 90
        2
 70
     0
 43
0.0
 10
-0.9213449598923233
 20
3.459833305907324
 10
-1.029305503268844
 20
3.865282662781453
  0
LWPOLYLINE
  5
A28
330
1F
100
AcDbEntity
  8
valley_fold
  6
ACAD_ISO03W100
 62
     7
 48
0.005
370
    50
100
AcDbPolyline
 90
        2
 70
     0
 43
0.0
 10
-0.353171368465496
 20
0.61401044622977
 10
-0.6854358863031394
 20
1.191721834859691
  0
LWPOLYLINE
  5
A29
330
1F
100
AcDbEntity
  8
valley_fold
  6
ACAD_ISO03W100
 62
     7
 48
0.005
370
    50
100
AcDbPolyline
 90
        2
 70
     0
 43
0.0
 10
-0.6854358863031394
 20
1.191721834859691
 10
-1.150973563431449
 20
1.154942982650709
  0
LWPOLYLINE
  5
A2A
330
1F
100
AcDbEntity
  8
valley_fold
  6
ACAD_ISO03W100
 62
     7
 48
0.005
370
    50
100
AcDbPolyline
 90
        2
 70
     0
 43
0.0
 10
-1.150973563431449
 20
1.154942982650709
 10
-1.627003440137826
 20
1.632575812792993
  0
LWPOLYLINE
  5
A2B
330
1F
100
AcDbEntity
  8
mountain_fold
 62
     7
 48
0.0
370
    50
100
AcDbPolyline
 90
        2
 70
     0
 43
0.0
 10
-0.6854358863031394
 20
1.191721834859691
 10
-0.9071833226698515
 20
1.585929951089752
  0
LWPOLYLINE
  5
A2D
330
1F
100
AcDbEntity
  8
mountain_fold
 62
     7
 48
0.0
370
    50
100
AcDbPolyline
 90
        2
 70
     0
 43
0.0
 10
-1.58703488955669
 20
0.919737197379959
 10
-1.627249937571875
 20
1.632298272738324
  0
LWPOLYLINE
  5
A2F
330
1F
100
AcDbEntity
  8
0
 62
     7
 48
0.0
370
    50
100
AcDbPolyline
 90
        2
 70
     0
 43
0.0
 10
-2.754264028189481
 20
1.596158257213261
 10
-2.228827370127319
 20
1.291654406800574
  0
LWPOLYLINE
  5
A30
330
1F
100
AcDbEntity
  8
valley_fold
  6
ACAD_ISO03W100
 62
     7
 48
0.005
370
    50
100
AcDbPolyline
 90
        2
 70
     0
 43
0.0
 10
-0.1730425217709965
 20
0.1002810333968203
 10
-0.6128606000953312
 20
0.3551629603912545
  0
LWPOLYLINE
  5
A35
330
1F
100
AcDbEntity
  8
mountain_fold
 62
     7
 48
0.0
370
    50
100
AcDbPolyline
 90
        2
 70
     0
 43
0.0
 10
-1.578608778866538
 20
0.9198639649314088
 10
-2.225324872610556
 20
0.6003901724525918
  0
LWPOLYLINE
  5
A36
330
1F
100
AcDbEntity
  8
valley_fold
  6
ACAD_ISO03W100
 62
     7
 48
0.005
370
    50
100
AcDbPolyline
 90
        5
 70
     0
 43
0.0
 10
-2.527813877608409
 20
2.535649963347367
 10
-2.3054777169054
 20
1.610563317390983
 10
-2.228827370127319
 20
1.291654406800574
 10
-3.20389460769276
 20
1.00656132553172
 10
-3.45684587915808
 20
0.9326033308085186
  0
LWPOLYLINE
  5
A37
330
1F
100
AcDbEntity
  8
valley_fold
  6
ACAD_ISO03W100
 62
     7
 48
0.005
370
    50
100
AcDbPolyline
 90
        2
 70
     0
 43
0.0
 10
-2.228845302644515
 20
1.291681566827122
 10
-1.58703488955669
 20
0.919737197379959
  0
LWPOLYLINE
  5
A39
330
1F
100
AcDbEntity
  8
valley_fold
  6
ACAD_ISO03W100
 62
     7
 48
0.005
370
    50
100
AcDbPolyline
 90
        2
 70
     0
 43
0.0
 10
-1.18944787511667
 20
0.6893162800549817
 10
-1.151169268951036
 20
1.154744374564018
  0
LWPOLYLINE
  5
A3B
330
1F
100
AcDbEntity
  8
valley_fold
  6
ACAD_ISO03W100
 62
     7
 48
0.005
370
    50
100
AcDbPolyline
 90
        2
 70
     0
 43
0.0
 10
-2.527824793869186
 20
2.535631055829099
 10
-2.824046045476677
 20
2.832780227141881
  0
LWPOLYLINE
  5
A3E
330
1F
100
AcDbEntity
  8
valley_fold
  6
ACAD_ISO03W100
 62
     7
 48
0.005
370
    50
100
AcDbPolyline
 90
        2
 70
     0
 43
0.0
 10
-0.6128606000953312
 20
0.3551629603912545
 10
-1.189465807633865
 20
0.6893434400815295
  0
LWPOLYLINE
  5
A3F
330
1F
100
AcDbEntity
  8
valley_fold
  6
ACAD_ISO03W100
 62
     7
 48
0.005
370
    50
100
AcDbPolyline
 90
        2
 70
     0
 43
0.0
 10
-1.189465807633865
 20
0.6893434400815295
 10
-1.574243836341295
 20
0.424723181182344
  0
LWPOLYLINE
  5
A40
330
1F
100
AcDbEntity
  8
valley_fold
  6
ACAD_ISO03W100
 62
     7
 48
0.005
370
    50
100
AcDbPolyline
 90
        2
 70
     0
 43
0.0
 10
-1.574243836341295
 20
0.424723181182344
 10
-2.225314217600541
 20
0.6003504074138562
  0
LWPOLYLINE
  5
A41
330
1F
100
AcDbEntity
  8
mountain_fold
 62
     7
 48
0.0
370
    50
100
AcDbPolyline
 90
        2
 70
     0
 43
0.0
 10
-1.189465807633865
 20
0.6893434400815295
 10
-1.578608778866538
 20
0.9198639649314088
  0
LWPOLYLINE
  5
A43
330
1F
100
AcDbEntity
  8
mountain_fold
 62
     7
 48
0.0
370
    50
100
AcDbPolyline
 90
        2
 70
     0
 43
0.0
 10
-1.834281129738315
 20
0.0029983329582137
 10
-2.225388920613056
 20
0.5999868019589201
  0
LWPOLYLINE
  5
A45
330
1F
100
AcDbEntity
  8
0
 62
     7
 48
0.0
370
    50
100
AcDbPolyline
 90
        2
 70
     0
 43
0.0
 10
-3.183341745748393
 20
0.0051815851122399
 10
-2.576048326580618
 20
0.0041918441357609
  0
LWPOLYLINE
  5
A46
330
1F
100
AcDbEntity
  8
valley_fold
  6
ACAD_ISO03W100
 62
     7
 48
0.005
370
    50
100
AcDbPolyline
 90
        2
 70
     0
 43
0.0
 10
-0.199999736487015
 20
0.0003246615539095
 10
-0.7083343288567648
 20
0.0011498461344672
  0
LWPOLYLINE
  5
A4B
330
1F
100
AcDbEntity
  8
mountain_fold
 62
     7
 48
0.0
370
    50
100
AcDbPolyline
 90
        2
 70
     0
 43
0.0
 10
-1.82704728760126
 20
0.0073211722232145
 10
-2.227382957580417
 20
-0.592709294778814
  0
LWPOLYLINE
  5
A4C
330
1F
100
AcDbEntity
  8
valley_fold
  6
ACAD_ISO03W100
 62
     7
 48
0.005
370
    50
100
AcDbPolyline
 90
        5
 70
     0
 43
0.0
 10
-3.456976015721423
 20
0.9320303445597062
 10
-2.80188392939452
 20
0.2420498888112377
 10
-2.576048326580618
 20
0.0041918441357609
 10
-3.277934784075767
 20
-0.7302396254689825
 10
-3.460018013722717
 20
-0.920764763444879
  0
LWPOLYLINE
  5
A4D
330
1F
100
AcDbEntity
  8
valley_fold
  6
ACAD_ISO03W100
 62
     7
 48
0.005
370
    50
100
AcDbPolyline
 90
        2
 70
     0
 43
0.0
 10
-2.576077436609338
 20
0.0042063991501209
 10
-1.834281129738315
 20
0.0029983329582137
  0
LWPOLYLINE
  5
A4F
330
1F
100
AcDbEntity
  8
valley_fold
  6
ACAD_ISO03W100
 62
     7
 48
0.005
370
    50
100
AcDbPolyline
 90
        2
 70
     0
 43
0.0
 10
-1.374750216355963
 20
0.0022414722114661
 10
-1.57431401824958
 20
0.4244533287740922
  0
LWPOLYLINE
  5
A51
330
1F
100
AcDbEntity
  8
valley_fold
  6
ACAD_ISO03W100
 62
     7
 48
0.005
370
    50
100
AcDbPolyline
 90
        2
 70
     0
 43
0.0
 10
-3.456976015721423
 20
0.932008512038152
 10
-3.86208573041074
 20
1.041236617304775
  0
LWPOLYLINE
  5
A54
330
1F
100
AcDbEntity
  8
valley_fold
  6
ACAD_ISO03W100
 62
     7
 48
0.005
370
    50
100
AcDbPolyline
 90
        2
 70
     0
 43
0.0
 10
-0.7083343288567648
 20
0.0011498461344672
 10
-1.374779326384683
 20
0.0022560272258261
  0
LWPOLYLINE
  5
A55
330
1F
100
AcDbEntity
  8
valley_fold
  6
ACAD_ISO03W100
 62
     7
 48
0.005
370
    50
100
AcDbPolyline
 90
        2
 70
     0
 43
0.0
 10
-1.374779326384683
 20
0.0022560272258261
 10
-1.575696744613807
 20
-0.4193008536906007
  0
LWPOLYLINE
  5
A56
330
1F
100
AcDbEntity
  8
valley_fold
  6
ACAD_ISO03W100
 62
     7
 48
0.005
370
    50
100
AcDbPolyline
 90
        2
 70
     0
 43
0.0
 10
-1.575696744613807
 20
-0.4193008536906007
 10
-2.227353847551697
 20
-0.592738404807534
  0
LWPOLYLINE
  5
A57
330
1F
100
AcDbEntity
  8
mountain_fold
 62
     7
 48
0.0
370
    50
100
AcDbPolyline
 90
        2
 70
     0
 43
0.0
 10
-1.374779326384683
 20
0.0022560272258261
 10
-1.82704728760126
 20
0.0073211722232145
  0
LWPOLYLINE
  5
A59
330
1F
100
AcDbEntity
  8
mountain_fold
 62
     7
 48
0.0
370
    50
100
AcDbPolyline
 90
        2
 70
     0
 43
0.0
 10
-1.590033222514918
 20
-0.9145439323583559
 10
-2.227236739530809
 20
-0.5930906478747034
  0
LWPOLYLINE
  5
A5B
330
1F
100
AcDbEntity
  8
0
 62
     7
 48
0.0
370
    50
100
AcDbPolyline
 90
        2
 70
     0
 43
0.0
 10
-2.75944561330175
 20
-1.587183488535117
 10
-2.23301921426308
 20
-1.284393919780029
  0
LWPOLYLINE
  5
A5C
330
1F
100
AcDbEntity
  8
valley_fold
  6
ACAD_ISO03W100
 62
     7
 48
0.005
370
    50
100
AcDbPolyline
 90
        2
 70
     0
 43
0.0
 10
-0.1733671833249054
 20
-0.0997187030901858
 10
-0.6140104462297984
 20
-0.353171368465496
  0
LWPOLYLINE
  5
A61
330
1F
100
AcDbEntity
  8
mountain_fold
 62
     7
 48
0.0
370
    50
100
AcDbPolyline
 90
        2
 70
     0
 43
0.0
 10
-1.585929951089752
 20
-0.9071833226698515
 10
-1.632615577831757
 20
-1.626992785127811
  0
LWPOLYLINE
  5
A62
330
1F
100
AcDbEntity
  8
valley_fold
  6
ACAD_ISO03W100
 62
     7
 48
0.005
370
    50
100
AcDbPolyline
 90
        5
 70
     0
 43
0.0
 10
-3.459844222168115
 20
-0.9213260523740416
 10
-2.547527605716638
 20
-1.191320612003522
 10
-2.23301921426308
 20
-1.284393919780029
 10
-2.473654982223791
 20
-2.271373458544047
 10
-2.536081115713216
 20
-2.527414682914184
  0
LWPOLYLINE
  5
A63
330
1F
100
AcDbEntity
  8
valley_fold
  6
ACAD_ISO03W100
 62
     7
 48
0.005
370
    50
100
AcDbPolyline
 90
        2
 70
     0
 43
0.0
 10
-2.233051701794636
 20
-1.284395869782201
 10
-1.590033222514918
 20
-0.9145439323583559
  0
LWPOLYLINE
  5
A65
330
1F
100
AcDbEntity
  8
valley_fold
  6
ACAD_ISO03W100
 62
     7
 48
0.005
370
    50
100
AcDbPolyline
 90
        2
 70
     0
 43
0.0
 10
-1.19168934732815
 20
-0.6854339363009672
 10
-1.575622597725157
 20
-0.4195696436855485
  0
LWPOLYLINE
  5
A67
330
1F
100
AcDbEntity
  8
valley_fold
  6
ACAD_ISO03W100
 62
     7
 48
0.005
370
    50
100
AcDbPolyline
 90
        2
 70
     0
 43
0.0
 10
-3.459833305907352
 20
-0.9213449598923375
 10
-3.865282662781467
 20
-1.029305503268858
  0
LWPOLYLINE
  5
A6A
330
1F
100
AcDbEntity
  8
valley_fold
  6
ACAD_ISO03W100
 62
     7
 48
0.005
370
    50
100
AcDbPolyline
 90
        2
 70
     0
 43
0.0
 10
-0.6140104462297984
 20
-0.353171368465496
 10
-1.191721834859706
 20
-0.6854358863031394
  0
LWPOLYLINE
  5
A6B
330
1F
100
AcDbEntity
  8
valley_fold
  6
ACAD_ISO03W100
 62
     7
 48
0.005
370
    50
100
AcDbPolyline
 90
        2
 70
     0
 43
0.0
 10
-1.191721834859706
 20
-0.6854358863031394
 10
-1.154942982650709
 20
-1.150973563431449
  0
LWPOLYLINE
  5
A6C
330
1F
100
AcDbEntity
  8
valley_fold
  6
ACAD_ISO03W100
 62
     7
 48
0.005
370
    50
100
AcDbPolyline
 90
        2
 70
     0
 43
0.0
 10
-1.154942982650709
 20
-1.150973563431449
 10
-1.632575812793021
 20
-1.627003440137826
  0
LWPOLYLINE
  5
A6D
330
1F
100
AcDbEntity
  8
mountain_fold
 62
     7
 48
0.0
370
    50
100
AcDbPolyline
 90
        2
 70
     0
 43
0.0
 10
-1.191721834859706
 20
-0.6854358863031394
 10
-1.585929951089752
 20
-0.9071833226698515
  0
LWPOLYLINE
  5
A6F
330
1F
100
AcDbEntity
  8
mountain_fold
 62
     7
 48
0.0
370
    50
100
AcDbPolyline
 90
        2
 70
     0
 43
0.0
 10
-0.9197371973799732
 20
-1.58703488955669
 10
-1.632298272738353
 20
-1.627249937571889
  0
LWPOLYLINE
  5
A71
330
1F
100
AcDbEntity
  8
0
 62
     7
 48
0.0
370
    50
100
AcDbPolyline
 90
        2
 70
     0
 43
0.0
 10
-1.596158257213289
 20
-2.754264028189481
 10
-1.291654406800574
 20
-2.228827370127334
  0
LWPOLYLINE
  5
A72
330
1F
100
AcDbEntity
  8
valley_fold
  6
ACAD_ISO03W100
 62
     7
 48
0.005
370
    50
100
AcDbPolyline
 90
        2
 70
     0
 43
0.0
 10
-0.1002810333968263
 20
-0.1730425217709931
 10
-0.3551629603912829
 20
-0.6128606000953312
  0
LWPOLYLINE
  5
A77
330
1F
100
AcDbEntity
  8
mountain_fold
 62
     7
 48
0.0
370
    50
100
AcDbPolyline
 90
        2
 70
     0
 43
0.0
 10
-0.919863964931423
 20
-1.578608778866538
 10
-0.600390172452606
 20
-2.225324872610542
  0
LWPOLYLINE
  5
A78
330
1F
100
AcDbEntity
  8
valley_fold
  6
ACAD_ISO03W100
 62
     7
 48
0.005
370
    50
100
AcDbPolyline
 90
        5
 70
     0
 43
0.0
 10
-2.535649963347381
 20
-2.527813877608423
 10
-1.610563317390997
 20
-2.305477716905386
 10
-1.291654406800574
 20
-2.228827370127334
 10
-1.006561325531734
 20
-3.203894607692774
 10
-0.932603330808547
 20
-3.456845879158095
  0
LWPOLYLINE
  5
A79
330
1F
100
AcDbEntity
  8
valley_fold
  6
ACAD_ISO03W100
 62
     7
 48
0.005
370
    50
100
AcDbPolyline
 90
        2
 70
     0
 43
0.0
 10
-1.291681566827122
 20
-2.228845302644515
 10
-0.9197371973799732
 20
-1.58703488955669
  0
LWPOLYLINE
  5
A7B
330
1F
100
AcDbEntity
  8
valley_fold
  6
ACAD_ISO03W100
 62
     7
 48
0.005
370
    50
100
AcDbPolyline
 90
        2
 70
     0
 43
0.0
 10
-0.6893162800549959
 20
-1.189447875116684
 10
-1.154744374564046
 20
-1.151169268951036
  0
LWPOLYLINE
  5
A7C
330
1F
100
AcDbEntity
  8
valley_fold
  6
ACAD_ISO03W100
 62
     7
 48
0.005
370
    50
100
AcDbPolyline
 90
        2
 70
     0
 43
0.0
 10
-0.932588775794187
 20
-3.456820669133719
 10
-1.041902547982644
 20
-3.861892099379019
  0
LWPOLYLINE
  5
A7D
330
1F
100
AcDbEntity
  8
valley_fold
  6
ACAD_ISO03W100
 62
     7
 48
0.005
370
    50
100
AcDbPolyline
 90
        2
 70
     0
 43
0.0
 10
-2.535631055829099
 20
-2.527824793869172
 10
-2.832780227141896
 20
-2.824046045476677
  0
LWPOLYLINE
  5
A80
330
1F
100
AcDbEntity
  8
valley_fold
  6
ACAD_ISO03W100
 62
     7
 48
0.005
370
    50
100
AcDbPolyline
 90
        2
 70
     0
 43
0.0
 10
-0.3551629603912829
 20
-0.6128606000953312
 10
-0.6893434400815437
 20
-1.189465807633865
  0
LWPOLYLINE
  5
A81
330
1F
100
AcDbEntity
  8
valley_fold
  6
ACAD_ISO03W100
 62
     7
 48
0.005
370
    50
100
AcDbPolyline
 90
        2
 70
     0
 43
0.0
 10
-0.6893434400815437
 20
-1.189465807633865
 10
-0.4247231811823582
 20
-1.574243836341281
  0
LWPOLYLINE
  5
A82
330
1F
100
AcDbEntity
  8
valley_fold
  6
ACAD_ISO03W100
 62
     7
 48
0.005
370
    50
100
AcDbPolyline
 90
        2
 70
     0
 43
0.0
 10
-0.4247231811823582
 20
-1.574243836341281
 10
-0.6003504074138704
 20
-2.225314217600555
  0
LWPOLYLINE
  5
A83
330
1F
100
AcDbEntity
  8
mountain_fold
 62
     7
 48
0.0
370
    50
100
AcDbPolyline
 90
        2
 70
     0
 43
0.0
 10
-0.6893434400815437
 20
-1.189465807633865
 10
-0.919863964931423
 20
-1.578608778866538
  0
LWPOLYLINE
  5
A8E
330
1F
100
AcDbEntity
  8
mountain_fold
 48
0.0
370
    50
100
AcDbPolyline
 90
        2
 70
     0
 43
0.0
 10
0.5930906478747034
 20
-2.227236739530809
 10
0.9213260523740274
 20
-3.459844222168129
  0
LWPOLYLINE
  5
A8F
330
1F
100
AcDbEntity
  8
mountain_fold
 48
0.0
370
    50
100
AcDbPolyline
 90
        2
 70
     0
 43
0.0
 10
1.62724993757186
 20
-1.632298272738353
 10
2.527813877608394
 20
-2.535649963347395
  0
LWPOLYLINE
  5
A90
330
1F
100
AcDbEntity
  8
mountain_fold
 48
0.0
370
    50
100
AcDbPolyline
 90
        2
 70
     0
 43
0.0
 10
2.225388920613042
 20
-0.5999868019589485
 10
3.456976015721409
 20
-0.9320303445597062
  0
LWPOLYLINE
  5
A91
330
1F
100
AcDbEntity
  8
mountain_fold
 48
0.0
370
    50
100
AcDbPolyline
 90
        2
 70
     0
 43
0.0
 10
2.227236739530795
 20
0.5930906478747034
 10
3.459844222168101
 20
0.9213260523740132
  0
LWPOLYLINE
  5
A92
330
1F
100
AcDbEntity
  8
mountain_fold
 48
0.0
370
    50
100
AcDbPolyline
 90
        2
 70
     0
 43
0.0
 10
1.632298272738339
 20
1.62724993757186
 10
2.535649963347367
 20
2.527813877608394
  0
LWPOLYLINE
  5
A93
330
1F
100
AcDbEntity
  8
mountain_fold
 48
0.0
370
    50
100
AcDbPolyline
 90
        2
 70
     0
 43
0.0
 10
0.5999868019589343
 20
2.225388920613028
 10
0.9320303445597062
 20
3.456976015721409
  0
LWPOLYLINE
  5
A94
330
1F
100
AcDbEntity
  8
mountain_fold
 48
0.0
370
    50
100
AcDbPolyline
 90
        2
 70
     0
 43
0.0
 10
-0.5930906478747176
 20
2.227236739530781
 10
-0.9213260523740416
 20
3.459844222168101
  0
LWPOLYLINE
  5
A95
330
1F
100
AcDbEntity
  8
mountain_fold
 48
0.0
370
    50
100
AcDbPolyline
 90
        2
 70
     0
 43
0.0
 10
-1.627249937571875
 20
1.632298272738324
 10
-2.527813877608409
 20
2.535649963347367
  0
LWPOLYLINE
  5
A96
330
1F
100
AcDbEntity
  8
mountain_fold
 48
0.0
370
    50
100
AcDbPolyline
 90
        2
 70
     0
 43
0.0
 10
-2.225388920613056
 20
0.5999868019589201
 10
-3.456976015721423
 20
0.9320303445597062
  0
LWPOLYLINE
  5
A97
330
1F
100
AcDbEntity
  8
mountain_fold
 48
0.0
370
    50
100
AcDbPolyline
 90
        2
 70
     0
 43
0.0
 10
-2.227236739530809
 20
-0.5930906478747034
 10
-3.459844222168115
 20
-0.9213260523740416
  0
LWPOLYLINE
  5
A98
330
1F
100
AcDbEntity
  8
mountain_fold
 48
0.0
370
    50
100
AcDbPolyline
 90
        2
 70
     0
 43
0.0
 10
-1.632298272738353
 20
-1.62724993757186
 10
-2.535649963347381
 20
-2.527813877608423
  0
LWPOLYLINE
  5
A99
330
1F
100
AcDbEntity
  8
mountain_fold
 48
0.0
370
    50
100
AcDbPolyline
 90
        2
 70
     0
 43
0.0
 10
-0.5999868019589343
 20
-2.225388920613056
 10
-0.9320303445597062
 20
-3.456976015721437
  0
CIRCLE
  5
AAD
330
1F
100
AcDbEntity
  8
0
100
AcDbCircle
 10
0.0
 20
0.0
 30
0.0
 40
3.999998118097866
  0
LWPOLYLINE
  5
B3A
330
1F
100
AcDbEntity
  8
mountain_fold
 48
0.0
370
    50
100
AcDbPolyline
 90
        2
 70
     0
 43
0.0
 10
-1.57431401824958
 20
0.4244533287740922
 10
-0.1931046781756258
 20
0.0520632621594905
  0
LWPOLYLINE
  5
B3B
330
1F
100
AcDbEntity
  8
mountain_fold
 48
0.0
370
    50
100
AcDbPolyline
 90
        2
 70
     0
 43
0.0
 10
-1.575622597725157
 20
-0.4195696436855485
 10
-0.1932651879694549
 20
-0.0514642314538091
  0
LWPOLYLINE
  5
B3C
330
1F
100
AcDbEntity
  8
mountain_fold
 48
0.0
370
    50
100
AcDbPolyline
 90
        2
 70
     0
 43
0.0
 10
-0.4244533287741206
 20
-1.574314018249594
 10
-0.0520632621940272
 20
-0.193104678166315
  0
LWPOLYLINE
  5
B3D
330
1F
100
AcDbEntity
  8
mountain_fold
 48
0.0
370
    50
100
AcDbPolyline
 90
        2
 70
     0
 43
0.0
 10
1.575696744613793
 20
0.4193008536905723
 10
0.1932739855047272
 20
0.0514311824394363
  0
LWPOLYLINE
  5
B3E
330
1F
100
AcDbEntity
  8
mountain_fold
 48
0.0
370
    50
100
AcDbPolyline
 90
        2
 70
     0
 43
0.0
 10
1.150973563431435
 20
-1.154942982650709
 10
0.1411777034552906
 20
-0.1416645899549007
  0
ARC
  5
BA4
330
1F
100
AcDbEntity
  8
0
100
AcDbCircle
 10
-0.1574493671900184
 20
2.730526697807985
 30
0.0
 40
1.430026559687538
100
AcDbArc
 50
127.8541844249241
 51
178.702859247034
  0
ARC
  5
BA5
330
1F
100
AcDbEntity
  8
0
100
AcDbCircle
 10
-2.281266054154496
 20
1.512649829034648
 30
0.0
 40
1.430026559687538
100
AcDbArc
 50
60.96032320569131
 51
111.8089980278012
  0
ARC
  5
BA6
330
1F
100
AcDbEntity
  8
0
100
AcDbCircle
 10
-1.501618500700332
 20
2.285980802418341
 30
0.0
 40
1.430026559687538
100
AcDbArc
 50
157.8541844249242
 51
208.7028592470341
  0
ARC
  5
BA7
330
1F
100
AcDbEntity
  8
0
100
AcDbCircle
 10
-2.731959270206204
 20
0.1693601518969454
 30
0.0
 40
1.430026559687538
100
AcDbArc
 50
90.96032320569129
 51
141.8089980278011
  0
ARC
  5
BA8
330
1F
100
AcDbEntity
  8
0
100
AcDbCircle
 10
-2.44343016960836
 20
1.228908197107652
 30
0.0
 40
1.430026559687538
100
AcDbArc
 50
187.8541844249241
 51
238.7028592470341
  0
ARC
  5
BA9
330
1F
100
AcDbEntity
  8
0
100
AcDbCircle
 10
-2.450626206051441
 20
-1.219309441171556
 30
0.0
 40
1.430026559687538
100
AcDbArc
 50
120.9603232056913
 51
171.8089980278012
  0
ARC
  5
BAA
330
1F
100
AcDbEntity
  8
0
100
AcDbCircle
 10
-2.730526697807985
 20
-0.1574493671900183
 30
0.0
 40
1.430026559687538
100
AcDbArc
 50
217.8541844249242
 51
268.702859247034
  0
ARC
  5
BAB
330
1F
100
AcDbEntity
  8
0
100
AcDbCircle
 10
-1.512649829034648
 20
-2.281266054154496
 30
0.0
 40
1.430026559687538
100
AcDbArc
 50
150.9603232056913
 51
201.8089980278012
  0
ARC
  5
BAC
330
1F
100
AcDbEntity
  8
0
100
AcDbCircle
 10
-2.285980802418341
 20
-1.501618500700332
 30
0.0
 40
1.430026559687538
100
AcDbArc
 50
247.8541844249242
 51
298.702859247034
  0
ARC
  5
BAD
330
1F
100
AcDbEntity
  8
0
100
AcDbCircle
 10
-0.1693601518969456
 20
-2.731959270206204
 30
0.0
 40
1.430026559687538
100
AcDbArc
 50
180.9603232056913
 51
231.8089980278012
  0
ARC
  5
BAE
330
1F
100
AcDbEntity
  8
0
100
AcDbCircle
 10
-1.228908197107653
 20
-2.443430169608359
 30
0.0
 40
1.430026559687538
100
AcDbArc
 50
277.8541844249241
 51
328.7028592470341
  0
ARC
  5
BAF
330
1F
100
AcDbEntity
  8
0
100
AcDbCircle
 10
1.219309441171555
 20
-2.450626206051441
 30
0.0
 40
1.430026559687538
100
AcDbArc
 50
210.9603232056913
 51
261.8089980278012
  0
ARC
  5
BB0
330
1F
100
AcDbEntity
  8
0
100
AcDbCircle
 10
0.1574493671900169
 20
-2.730526697807985
 30
0.0
 40
1.430026559687538
100
AcDbArc
 50
307.8541844249242
 51
358.702859247034
  0
ARC
  5
BB1
330
1F
100
AcDbEntity
  8
0
100
AcDbCircle
 10
2.281266054154495
 20
-1.512649829034649
 30
0.0
 40
1.430026559687538
100
AcDbArc
 50
240.9603232056912
 51
291.8089980278012
  0
ARC
  5
BB2
330
1F
100
AcDbEntity
  8
0
100
AcDbCircle
 10
1.501618500700331
 20
-2.285980802418342
 30
0.0
 40
1.430026559687538
100
AcDbArc
 50
337.8541844249241
 51
28.70285924703403
  0
ARC
  5
BB3
330
1F
100
AcDbEntity
  8
0
100
AcDbCircle
 10
2.731959270206204
 20
-0.1693601518969472
 30
0.0
 40
1.430026559687538
100
AcDbArc
 50
270.9603232056913
 51
321.8089980278011
  0
ARC
  5
BB4
330
1F
100
AcDbEntity
  8
0
100
AcDbCircle
 10
2.443430169608359
 20
-1.228908197107654
 30
0.0
 40
1.430026559687538
100
AcDbArc
 50
7.85418442492415
 51
58.70285924703403
  0
ARC
  5
BB5
330
1F
100
AcDbEntity
  8
0
100
AcDbCircle
 10
2.450626206051442
 20
1.219309441171555
 30
0.0
 40
1.430026559687538
100
AcDbArc
 50
300.9603232056913
 51
351.8089980278012
  0
ARC
  5
BB6
330
1F
100
AcDbEntity
  8
0
100
AcDbCircle
 10
2.730526697807985
 20
0.1574493671900179
 30
0.0
 40
1.430026559687538
100
AcDbArc
 50
37.85418442492417
 51
88.70285924703406
  0
ARC
  5
BB7
330
1F
100
AcDbEntity
  8
0
100
AcDbCircle
 10
1.512649829034648
 20
2.281266054154496
 30
0.0
 40
1.430026559687538
100
AcDbArc
 50
330.9603232056913
 51
21.80899802780118
  0
ARC
  5
BB8
330
1F
100
AcDbEntity
  8
0
100
AcDbCircle
 10
2.285980802418341
 20
1.501618500700333
 30
0.0
 40
1.430026559687538
100
AcDbArc
 50
67.85418442492418
 51
118.702859247034
  0
ARC
  5
BB9
330
1F
100
AcDbEntity
  8
0
100
AcDbCircle
 10
0.1693601518969447
 20
2.731959270206204
 30
0.0
 40
1.430026559687538
100
AcDbArc
 50
0.9603232056913158
 51
51.8089980278012
  0
ARC
  5
BBA
330
1F
100
AcDbEntity
  8
0
100
AcDbCircle
 10
1.228908197107651
 20
2.44343016960836
 30
0.0
 40
1.430026559687538
100
AcDbArc
 50
97.85418442492421
 51
148.702859247034
  0
ARC
  5
BBB
330
1F
100
AcDbEntity
  8
0
100
AcDbCircle
 10
-1.219309441171557
 20
2.45062620605144
 30
0.0
 40
1.430026559687538
100
AcDbArc
 50
30.96032320569133
 51
81.80899802780121
  0
CIRCLE
  5
BC6
330
1F
100
AcDbEntity
  8
0
 62
     9
100
AcDbCircle
 10
0.0
 20
0.0
 30
0.0
 40
0.1
  0
LWPOLYLINE
  5
BCA
330
1F
100
AcDbEntity
  8
0
370
    50
100
AcDbPolyline
 90
        2
 70
     0
 43
0.0
 10
-1.150973563431449
 20
1.154942982650709
 10
-0.1411777034552977
 20
0.1416645899548932
  0
CIRCLE
  5
BCC
330
1F
100
AcDbEntity
  8
0
 62
     9
100
AcDbCircle
 10
0.0
 20
0.0
 30
0.0
 40
0.2
  0
LWPOLYLINE
  5
BE9
330
1F
100
AcDbEntity
  8
mountain_fold
 62
     7
 48
0.0
370
    50
100
AcDbPolyline
 90
        4
 70
     0
 43
0.0
 10
0.0520578937223719
 20
0.1931061254885257
 10
0.2162584033648471
 20
0.8021996164661118
 10
0.2162584033648471
 20
0.8021996164661118
 10
0.4244533287741064
 20
1.574314018249566
  0
LWPOLYLINE
  5
BEA
330
1F
100
AcDbEntity
  8
mountain_fold
 48
0.0
370
    50
100
AcDbPolyline
 90
        2
 70
     0
 43
0.0
 10
-0.1416645899548846
 20
-0.1411777034553063
 10
-1.154942982650709
 20
-1.150973563431449
  0
LWPOLYLINE
  5
BEB
330
1F
100
AcDbEntity
  8
mountain_fold
 48
0.0
370
    50
100
AcDbPolyline
 90
        2
 70
     0
 43
0.0
 10
0.0514642313939403
 20
-0.1932651879853974
 10
0.4195696436855343
 20
-1.575622597725157
  0
LWPOLYLINE
  5
BEC
330
1F
100
AcDbEntity
  8
mountain_fold
 48
0.0
370
    50
100
AcDbPolyline
 90
        2
 70
     0
 43
0.0
 10
0.1931046781154596
 20
-0.0520632623826507
 10
1.574314018249566
 20
-0.4244533287741206
  0
LWPOLYLINE
  5
C44
330
1F
100
AcDbEntity
  8
valley_fold
100
AcDbPolyline
 90
        4
 70
     1
 43
0.0
 10
-4.099999999999999
 20
-4.099999999999999
 10
4.099999999999999
 20
-4.099999999999999
 10
4.099999999999999
 20
4.099999999999999
 10
-4.099999999999999
 20
4.099999999999999
  0
ENDSEC
  0
SECTION
  2
OBJECTS
  0
DICTIONARY
  5
C
330
0
100
AcDbDictionary
281
     1
  3
ACAD_CIP_PREVIOUS_PRODUCT_INFO
350
78F
  3
ACAD_COLOR
350
770
  3
ACAD_DETAILVIEWSTYLE
350
789
  3
ACAD_GROUP
350
D
  3
ACAD_LAYOUT
350
1A
  3
ACAD_MATERIAL
350
74D
  3
ACAD_MLEADERSTYLE
350
784
  3
ACAD_MLINESTYLE
350
17
  3
ACAD_PLOTSETTINGS
350
19
  3
ACAD_PLOTSTYLENAME
350
74B
  3
ACAD_SCALELIST
350
772
  3
ACAD_SECTIONVIEWSTYLE
350
786
  3
ACAD_TABLESTYLE
350
748
  3
ACAD_VISUALSTYLE
350
2A
  3
ACDB_RECOMPOSE_DATA
350
C54
  3
AcDbVariableDictionary
350
B08
1001
ACAD
1000
TREAT_AS_HARD
1070
     0
  0
DICTIONARY
  5
A9D
330
2
100
AcDbDictionary
280
     1
281
     1
  3
ACAD_LAYERSTATES
360
A9E
  0
DICTIONARY
  5
791
330
10
100
AcDbDictionary
280
     1
281
     1
  3
ADSK_XREC_LAYER_RECONCILED
360
792
  0
DICTIONARY
  5
793
330
3B
100
AcDbDictionary
280
     1
281
     1
  3
ADSK_XREC_LAYER_RECONCILED
360
794
  0
DICTIONARY
  5
795
330
FC
100
AcDbDictionary
280
     1
281
     1
  3
ADSK_XREC_LAYER_RECONCILED
360
796
  0
DICTIONARY
  5
797
330
40C
100
AcDbDictionary
280
     1
281
     1
  3
ADSK_XREC_LAYER_RECONCILED
360
798
  0
DICTIONARY
  5
7AA
330
1F
100
AcDbDictionary
280
     1
281
     1
  3
ACAD_SORTENTS
360
7AB
  0
XRECORD
  5
78F
102
{ACAD_REACTORS
330
C
102
}
330
C
100
AcDbXrecord
280
     1
300
ACD
300
2013
300
ACD_F_S
  0
DICTIONARY
  5
770
102
{ACAD_REACTORS
330
C
102
}
330
C
100
AcDbDictionary
281
     1
  0
DICTIONARY
  5
789
102
{ACAD_REACTORS
330
C
102
}
330
C
100
AcDbDictionary
281
     1
  3
Imperial24
350
78A
  0
DICTIONARY
  5
D
102
{ACAD_REACTORS
330
C
102
}
330
C
100
AcDbDictionary
281
     1
1001
ACAD
1000
TREAT_AS_HARD
1070
     0
  0
DICTIONARY
  5
1A
102
{ACAD_REACTORS
330
C
102
}
330
C
100
AcDbDictionary
281
     1
  3
Layout1
350
78C
  3
Model
350
78B
1001
ACAD
1000
TREAT_AS_HARD
1070
     0
  0
DICTIONARY
  5
74D
102
{ACAD_REACTORS
330
C
102
}
330
C
100
AcDbDictionary
281
     1
  3
ByBlock
350
756
  3
ByLayer
350
74E
  3
Global
350
75E
  0
DICTIONARY
  5
784
102
{ACAD_REACTORS
330
C
102
}
330
C
100
AcDbDictionary
281
     1
  3
Standard
350
785
  0
DICTIONARY
  5
17
102
{ACAD_REACTORS
330
C
102
}
330
C
100
AcDbDictionary
281
     1
  3
STANDARD
350
18
1001
ACAD
1000
TREAT_AS_HARD
1070
     0
  0
DICTIONARY
  5
19
102
{ACAD_REACTORS
330
C
102
}
330
C
100
AcDbDictionary
281
     1
1001
ACAD
1000
TREAT_AS_HARD
1070
     0
  0
ACDBDICTIONARYWDFLT
  5
74B
102
{ACAD_REACTORS
330
C
102
}
330
C
100
AcDbDictionary
281
     1
  3
Normal
350
74C
100
AcDbDictionaryWithDefault
340
74C
  0
DICTIONARY
  5
772
102
{ACAD_REACTORS
330
C
102
}
330
C
100
AcDbDictionary
281
     1
  3
A0
350
773
  3
A1
350
774
  3
A2
350
775
  3
A3
350
776
  3
A4
350
777
  3
A5
350
778
  3
A6
350
779
  3
A7
350
77A
  3
A8
350
77B
  3
A9
350
77C
  3
B0
350
77D
  3
B1
350
77E
  3
B2
350
77F
  3
B3
350
780
  3
B4
350
781
  3
B5
350
782
  3
B6
350
783
  0
DICTIONARY
  5
786
102
{ACAD_REACTORS
330
C
102
}
330
C
100
AcDbDictionary
281
     1
  3
Imperial24
350
788
  0
DICTIONARY
  5
748
102
{ACAD_REACTORS
330
C
102
}
330
C
100
AcDbDictionary
281
     1
  3
Standard
350
771
1001
ACAD
1000
TREAT_AS_HARD
1070
     0
  0
DICTIONARY
  5
2A
102
{ACAD_REACTORS
330
C
102
}
330
C
100
AcDbDictionary
281
     1
  3
2DWIREFRAME
350
2F
  3
3D_HIDDEN
350
31
  3
3DWIREFRAME
350
30
  3
BASIC
350
32
  3
BRIGHTEN
350
36
  3
COLORCHANGE
350
3A
  3
CONCEPTUAL
350
34
  3
DIM
350
35
  3
EdgeColorOff
350
76F
  3
FACEPATTERN
350
39
  3
FLAT
350
2B
  3
FLATWITHEDGES
350
2C
  3
GOURAUD
350
2D
  3
GOURAUDWITHEDGES
350
2E
  3
Hidden
350
767
  3
JitterOff
350
76D
  3
LINEPATTERN
350
38
  3
OverhangOff
350
76E
  3
REALISTIC
350
33
  3
Shaded
350
76C
  3
Shaded with edges
350
76B
  3
Shades of Gray
350
768
  3
Sketchy
350
769
  3
THICKEN
350
37
  3
Wireframe
350
766
  3
X-Ray
350
76A
1001
ACAD
1000
TREAT_AS_HARD
1070
     0
  0
XRECORD
  5
C54
102
{ACAD_REACTORS
330
C
102
}
330
C
100
AcDbXrecord
280
     1
 90
        1
330
771
  0
DICTIONARY
  5
B08
102
{ACAD_REACTORS
330
C
102
}
330
C
100
AcDbDictionary
281
     1
  3
CANNOSCALE
350
B0E
  3
CMLEADERSTYLE
350
B0A
  3
CTABLESTYLE
350
B09
  3
CVIEWDETAILSTYLE
350
B0B
  3
CVIEWSECTIONSTYLE
350
B0C
  3
LAYEREVAL
350
B10
  3
LAYERNOTIFY
350
B11
  3
LIGHTINGUNITS
350
B0F
  3
MSLTSCALE
350
B0D
  0
DICTIONARY
  5
A9E
102
{ACAD_REACTORS
330
A9D
102
}
330
A9D
100
AcDbDictionary
281
     1
  0
XRECORD
  5
792
102
{ACAD_REACTORS
330
791
102
}
330
791
100
AcDbXrecord
280
     1
290
     1
  0
XRECORD
  5
794
102
{ACAD_REACTORS
330
793
102
}
330
793
100
AcDbXrecord
280
     1
290
     1
  0
XRECORD
  5
796
102
{ACAD_REACTORS
330
795
102
}
330
795
100
AcDbXrecord
280
     1
290
     1
  0
XRECORD
  5
798
102
{ACAD_REACTORS
330
797
102
}
330
797
100
AcDbXrecord
280
     1
290
     1
  0
SORTENTSTABLE
  5
7AB
102
{ACAD_REACTORS
330
7AA
102
}
330
7AA
100
AcDbSortentsTable
330
1F
331
A46
  5
A4F
331
A7D
  5
A80
331
A03
  5
A14
331
A79
  5
A7C
331
9C8
  5
9DF
331
9FF
  5
A12
331
A3E
  5
A45
331
BBB
  5
BE9
331
A71
  5
A75
331
812
  5
9A1
331
A36
  5
A3F
331
7F6
  5
9A5
331
BB7
  5
BBB
331
9F7
  5
A0B
331
A6D
  5
A71
331
BB3
  5
BB7
331
9B4
  5
7B5
331
7C6
  5
9A9
331
9F3
  5
A04
331
A2A
  5
A36
331
881
  5
7C0
331
BAF
  5
BB3
331
BEA
  5
B3D
331
A65
  5
A6C
331
BAB
  5
BAF
331
9AC
  5
9CA
331
87D
  5
7D3
331
9EB
  5
9FF
331
A61
  5
A65
331
A98
  5
A99
331
BA7
  5
BAB
331
879
  5
819
331
9E7
  5
9FB
331
A94
  5
A95
331
9E3
  5
7BD
331
875
  5
836
331
9A4
  5
9BF
331
A1A
  5
A2A
331
A59
  5
A60
331
A90
  5
A91
331
871
  5
860
331
9DF
  5
9F4
331
A55
  5
A5B
331
A51
  5
7B8
331
86D
  5
89F
331
99C
  5
9B7
331
A12
  5
A21
331
9D7
  5
9EB
331
A4D
  5
A54
331
B3B
  5
B3C
331
BCA
  5
BEB
331
9D3
  5
9E8
331
A0A
  5
A1D
331
A80
  5
A81
331
859
  5
99D
331
BC6
  5
BEA
331
A7C
  5
7BA
331
A45
  5
A4C
331
9CB
  5
9E3
331
A41
  5
A4A
331
A78
  5
A7A
331
9C7
  5
9DE
331
BBA
  5
BCC
331
A39
  5
A43
331
9BF
  5
9D7
331
A35
  5
A3C
331
9BB
  5
9D3
331
BB6
  5
BBA
331
A6C
  5
7B4
331
9F6
  5
A0A
331
9B7
  5
7BB
331
A2D
  5
A38
331
BB2
  5
BB6
331
9F2
  5
7AF
331
9B3
  5
9D0
331
A29
  5
A35
331
880
  5
7C1
331
BAE
  5
BB2
331
BE9
  5
7B3
331
A25
  5
7BF
331
9EE
  5
A03
331
BAA
  5
BAE
331
A21
  5
A2F
331
87C
  5
7E9
331
9AB
  5
9C8
331
A97
  5
A98
331
BA6
  5
BAA
331
9A7
  5
9C2
331
878
  5
81A
331
7A9
  5
9AC
331
9E6
  5
9F9
331
A5C
  5
A64
331
A93
  5
A94
331
874
  5
840
331
A19
  5
A26
331
870
  5
865
331
A8F
  5
A90
331
99F
  5
9BC
331
9DE
  5
9F3
331
A15
  5
A24
331
A54
  5
A59
331
86C
  5
993
331
99B
  5
9B5
331
B3E
  5
BA7
331
868
  5
99A
331
A0D
  5
A20
331
A4C
  5
A53
331
A83
  5
A8E
331
B3A
  5
B3B
331
993
  5
9B0
331
9D2
  5
9E7
331
A09
  5
A19
331
89F
  5
9AF
331
A7B
  5
A7D
331
9CA
  5
7B6
331
A01
  5
A13
331
A40
  5
A49
331
A77
  5
A79
331
9FD
  5
A11
331
BB9
  5
BCA
331
9C2
  5
9DD
331
9F9
  5
A0E
331
810
  5
9A4
331
9BA
  5
9D2
331
A30
  5
A3B
331
A6F
  5
A72
331
BB5
  5
BB9
331
9F5
  5
A09
331
A6B
  5
A6F
331
BB1
  5
BB5
331
9B2
  5
9CC
331
A28
  5
A34
331
BEC
  5
BA6
331
A67
  5
7B9
331
BAD
  5
BB1
331
87F
  5
7C2
331
9ED
  5
A01
331
A63
  5
A69
331
BA9
  5
BAD
331
A20
  5
A2D
331
87B
  5
802
331
7AC
  5
9AB
331
9E9
  5
9FE
331
A96
  5
A97
331
BA5
  5
BA9
331
877
  5
81C
331
A5B
  5
A61
331
A92
  5
A93
331
873
  5
841
331
9E1
  5
9F8
331
A57
  5
A5F
331
A8E
  5
A8F
331
99E
  5
9B9
331
86F
  5
866
331
9DD
  5
9F2
331
A14
  5
A23
331
A4F
  5
A57
331
86B
  5
995
331
B3D
  5
BA5
331
BCC
  5
BEC
331
996
  5
9B4
331
9D5
  5
9E9
331
A0C
  5
A1F
331
A4B
  5
A50
331
A82
  5
A83
331
A08
  5
7B2
331
9D1
  5
9E6
331
9CD
  5
7BC
331
A04
  5
A17
331
A43
  5
A4B
331
843
  5
99F
331
9C9
  5
9E2
331
A3F
  5
A46
331
A3B
  5
7B7
331
9FC
  5
A10
331
A72
  5
A78
331
BB8
  5
BC6
331
813
  5
9A0
331
9C1
  5
9DC
331
A37
  5
A40
331
9BD
  5
9D5
331
A2F
  5
A39
331
AAD
  5
B3A
331
BB4
  5
BB8
331
9F4
  5
A07
331
7C7
  5
9A7
331
9B5
  5
9D1
331
A2B
  5
A37
331
A6A
  5
A6D
331
BB0
  5
BB4
331
9B1
  5
9CB
331
BEB
  5
BA4
331
BAC
  5
BB0
331
87E
  5
7C4
331
A23
  5
A33
331
A62
  5
A66
331
A99
  5
AAD
331
BA8
  5
BAC
331
9A9
  5
9C5
331
87A
  5
803
331
9E8
  5
9FC
331
A1F
  5
A2B
331
A95
  5
A96
331
BA4
  5
BA8
331
876
  5
834
331
9A5
  5
9C1
331
A91
  5
A92
331
872
  5
85F
331
9A1
  5
9BD
331
9E0
  5
9F5
331
A17
  5
A25
331
A56
  5
A5C
331
86E
  5
880
331
99D
  5
9B8
331
A13
  5
A22
331
A0F
  5
7BE
331
86A
  5
999
331
9D8
  5
9F1
331
B3C
  5
B3E
331
995
  5
9B3
331
A0B
  5
A1E
331
A81
  5
A82
331
9D0
  5
9E4
  0
ACDBDETAILVIEWSTYLE
  5
78A
102
{ACAD_REACTORS
330
789
102
}
330
789
100
AcDbModelDocViewStyle
 70
     0
  3
Imperial24
290
     0
100
AcDbDetailViewStyle
 70
     0
 71
     0
 90
        3
 71
     1
340
11
 62
   256
 40
0.24
340
0
 62
   256
 40
0.24
300

 40
0.36
280
     3
 71
     2
340
16
 90
       25
 62
   256
 71
     3
340
11
 62
   256
 40
0.24
 90
        1
 40
0.75
 90
        1
300
%<\AcVar ViewType \f "%tc1">% %<\AcVar ViewDetailId>%\PSCALE %<\AcVar ViewScale \f "%sn">%
 71
     4
340
16
 90
       25
 62
   256
340
16
 90
       25
 62
   256
280
     0
  0
LAYOUT
  5
78C
102
{ACAD_REACTORS
330
1A
102
}
330
1A
100
AcDbPlotSettings
  1

  2
NPI34B5A7 (HP LaserJet 300 colorMFP M375nw)
  4

  6

 40
0.0
 41
0.0
 42
0.0
 43
0.0
 44
0.0
 45
0.0
 46
0.0
 47
0.0
 48
0.0
 49
0.0
140
0.0
141
0.0
142
1.0
143
1.0
 70
   688
 72
     0
 73
     0
 74
     5
  7

 75
    16
147
1.0
 76
     0
 77
     2
 78
   300
148
0.0
149
0.0
100
AcDbLayout
  1
Layout1
 70
     1
 71
     1
 10
0.0
 20
0.0
 11
12.0
 21
9.0
 12
0.0
 22
0.0
 32
0.0
 14
1.000000000000000E+20
 24
1.000000000000000E+20
 34
1.000000000000000E+20
 15
-1.000000000000000E+20
 25
-1.000000000000000E+20
 35
-1.000000000000000E+20
146
0.0
 13
0.0
 23
0.0
 33
0.0
 16
1.0
 26
0.0
 36
0.0
 17
0.0
 27
1.0
 37
0.0
 76
     0
330
1B
  0
LAYOUT
  5
78B
102
{ACAD_REACTORS
330
1A
102
}
330
1A
100
AcDbPlotSettings
  1

  2
NPI34B5A7 (HP LaserJet 300 colorMFP M375nw)
  4
A4
  6

 40
5.027082920074462
 41
5.831390380859375
 42
5.069412231445312
 43
5.789093017578125
 44
210.0156707763672
 45
297.0106506347656
 46
0.0
 47
0.0
 48
0.0
 49
0.0
140
0.0
141
0.0
142
1.0
143
1.022526847748773
 70
 11952
 72
     0
 73
     1
 74
     0
  7

 75
     0
147
0.9779694315133438
 76
     0
 77
     2
 78
   300
148
2769.240547243163
149
-3669.665257790266
100
AcDbLayout
  1
Model
 70
     1
 71
     0
 10
0.0
 20
0.0
 11
12.0
 21
9.0
 12
0.0
 22
0.0
 32
0.0
 14
0.0
 24
0.0
 34
0.0
 15
0.0
 25
0.0
 35
0.0
146
0.0
 13
0.0
 23
0.0
 33
0.0
 16
1.0
 26
0.0
 36
0.0
 17
0.0
 27
1.0
 37
0.0
 76
     0
330
1F
331
29
1001
ACAD_PSEXT
1000
NPI34B5A7 (HP LaserJet 300 colorMFP M375nw)
1000
HP LJ300-400 color MFP M375-M475 PCL6 Class Driver
1000
http://[fe80::e6d5:3dff:fe43:a9cd%6]:3911/
1000

1070
     0
  0
MATERIAL
  5
756
102
{ACAD_XDICTIONARY
360
757
102
}
102
{ACAD_REACTORS
330
74D
102
}
330
74D
100
AcDbMaterial
  1
ByBlock
 72
     0
 43
0.0208333333333333
 43
0.0
 43
0.0
 43
0.0
 43
0.0
 43
0.0208333333333333
 43
0.0
 43
0.0
 43
0.0
 43
0.0
 43
1.0
 43
0.0
 43
0.0
 43
0.0
 43
0.0
 43
1.0
 77
     0
 47
0.0208333333333333
 47
0.0
 47
0.0
 47
0.0
 47
0.0
 47
0.0208333333333333
 47
0.0
 47
0.0
 47
0.0
 47
0.0
 47
1.0
 47
0.0
 47
0.0
 47
0.0
 47
0.0
 47
1.0
171
     0
 49
0.0208333333333333
 49
0.0
 49
0.0
 49
0.0
 49
0.0
 49
0.0208333333333333
 49
0.0
 49
0.0
 49
0.0
 49
0.0
 49
1.0
 49
0.0
 49
0.0
 49
0.0
 49
0.0
 49
1.0
175
     0
142
0.0208333333333333
142
0.0
142
0.0
142
0.0
142
0.0
142
0.0208333333333333
142
0.0
142
0.0
142
0.0
142
0.0
142
1.0
142
0.0
142
0.0
142
0.0
142
0.0
142
1.0
179
     0
144
0.0208333333333333
144
0.0
144
0.0
144
0.0
144
0.0
144
0.0208333333333333
144
0.0
144
0.0
144
0.0
144
0.0
144
1.0
144
0.0
144
0.0
144
0.0
144
0.0
144
1.0
147
0.0208333333333333
147
0.0
147
0.0
147
0.0
147
0.0
147
0.0208333333333333
147
0.0
147
0.0
147
0.0
147
0.0
147
1.0
147
0.0
147
0.0
147
0.0
147
0.0
147
1.0
  0
MATERIAL
  5
74E
102
{ACAD_XDICTIONARY
360
74F
102
}
102
{ACAD_REACTORS
330
74D
102
}
330
74D
100
AcDbMaterial
  1
ByLayer
 72
     0
 43
0.0208333333333333
 43
0.0
 43
0.0
 43
0.0
 43
0.0
 43
0.0208333333333333
 43
0.0
 43
0.0
 43
0.0
 43
0.0
 43
1.0
 43
0.0
 43
0.0
 43
0.0
 43
0.0
 43
1.0
 77
     0
 47
0.0208333333333333
 47
0.0
 47
0.0
 47
0.0
 47
0.0
 47
0.0208333333333333
 47
0.0
 47
0.0
 47
0.0
 47
0.0
 47
1.0
 47
0.0
 47
0.0
 47
0.0
 47
0.0
 47
1.0
171
     0
 49
0.0208333333333333
 49
0.0
 49
0.0
 49
0.0
 49
0.0
 49
0.0208333333333333
 49
0.0
 49
0.0
 49
0.0
 49
0.0
 49
1.0
 49
0.0
 49
0.0
 49
0.0
 49
0.0
 49
1.0
175
     0
142
0.0208333333333333
142
0.0
142
0.0
142
0.0
142
0.0
142
0.0208333333333333
142
0.0
142
0.0
142
0.0
142
0.0
142
1.0
142
0.0
142
0.0
142
0.0
142
0.0
142
1.0
179
     0
144
0.0208333333333333
144
0.0
144
0.0
144
0.0
144
0.0
144
0.0208333333333333
144
0.0
144
0.0
144
0.0
144
0.0
144
1.0
144
0.0
144
0.0
144
0.0
144
0.0
144
1.0
147
0.0208333333333333
147
0.0
147
0.0
147
0.0
147
0.0
147
0.0208333333333333
147
0.0
147
0.0
147
0.0
147
0.0
147
1.0
147
0.0
147
0.0
147
0.0
147
0.0
147
1.0
  0
MATERIAL
  5
75E
102
{ACAD_XDICTIONARY
360
75F
102
}
102
{ACAD_REACTORS
330
74D
102
}
330
74D
100
AcDbMaterial
  1
Global
 72
     0
 43
0.0208333333333333
 43
0.0
 43
0.0
 43
0.0
 43
0.0
 43
0.0208333333333333
 43
0.0
 43
0.0
 43
0.0
 43
0.0
 43
1.0
 43
0.0
 43
0.0
 43
0.0
 43
0.0
 43
1.0
 77
     0
 47
0.0208333333333333
 47
0.0
 47
0.0
 47
0.0
 47
0.0
 47
0.0208333333333333
 47
0.0
 47
0.0
 47
0.0
 47
0.0
 47
1.0
 47
0.0
 47
0.0
 47
0.0
 47
0.0
 47
1.0
171
     0
 49
0.0208333333333333
 49
0.0
 49
0.0
 49
0.0
 49
0.0
 49
0.0208333333333333
 49
0.0
 49
0.0
 49
0.0
 49
0.0
 49
1.0
 49
0.0
 49
0.0
 49
0.0
 49
0.0
 49
1.0
175
     0
142
0.0208333333333333
142
0.0
142
0.0
142
0.0
142
0.0
142
0.0208333333333333
142
0.0
142
0.0
142
0.0
142
0.0
142
1.0
142
0.0
142
0.0
142
0.0
142
0.0
142
1.0
179
     0
144
0.0208333333333333
144
0.0
144
0.0
144
0.0
144
0.0
144
0.0208333333333333
144
0.0
144
0.0
144
0.0
144
0.0
144
1.0
144
0.0
144
0.0
144
0.0
144
0.0
144
1.0
147
0.0208333333333333
147
0.0
147
0.0
147
0.0
147
0.0
147
0.0208333333333333
147
0.0
147
0.0
147
0.0
147
0.0
147
1.0
147
0.0
147
0.0
147
0.0
147
0.0
147
1.0
  0
MLEADERSTYLE
  5
785
102
{ACAD_REACTORS
330
784
102
}
330
784
100
AcDbMLeaderStyle
179
     2
170
     2
171
     1
172
     0
 90
        2
 40
0.0
 41
0.0
173
     1
 91
-1056964608
340
14
 92
       -2
290
     1
 42
0.09
291
     1
 43
0.36
  3
Standard
 44
0.18
300

342
11
174
     1
178
     6
175
     1
176
     0
 93
-1056964608
 45
0.18
292
     0
297
     0
 46
0.18
 94
-1056964608
 47
1.0
 49
1.0
140
1.0
293
     1
141
0.0
294
     1
177
     0
142
1.0
295
     0
296
     0
143
0.125
271
     0
272
     9
273
     9
298
     0
  0
MLINESTYLE
  5
18
102
{ACAD_REACTORS
330
17
102
}
330
17
100
AcDbMlineStyle
  2
STANDARD
 70
     0
  3

 62
   256
 51
90.0
 52
90.0
 71
     2
 49
0.5
 62
   256
  6
BYLAYER
 49
-0.5
 62
   256
  6
BYLAYER
  0
ACDBPLACEHOLDER
  5
74C
102
{ACAD_REACTORS
330
74B
102
}
330
74B
  0
SCALE
  5
773
102
{ACAD_REACTORS
330
772
102
}
330
772
100
AcDbScale
 70
     0
300
1:1
140
1.0
141
1.0
290
     1
  0
SCALE
  5
774
102
{ACAD_REACTORS
330
772
102
}
330
772
100
AcDbScale
 70
     0
300
1/128" = 1'-0"
140
0.0078125
141
12.0
290
     0
  0
SCALE
  5
775
102
{ACAD_REACTORS
330
772
102
}
330
772
100
AcDbScale
 70
     0
300
1/64" = 1'-0"
140
0.015625
141
12.0
290
     0
  0
SCALE
  5
776
102
{ACAD_REACTORS
330
772
102
}
330
772
100
AcDbScale
 70
     0
300
1/32" = 1'-0"
140
0.03125
141
12.0
290
     0
  0
SCALE
  5
777
102
{ACAD_REACTORS
330
772
102
}
330
772
100
AcDbScale
 70
     0
300
1/16" = 1'-0"
140
0.0625
141
12.0
290
     0
  0
SCALE
  5
778
102
{ACAD_REACTORS
330
772
102
}
330
772
100
AcDbScale
 70
     0
300
3/32" = 1'-0"
140
0.09375
141
12.0
290
     0
  0
SCALE
  5
779
102
{ACAD_REACTORS
330
772
102
}
330
772
100
AcDbScale
 70
     0
300
1/8" = 1'-0"
140
0.125
141
12.0
290
     0
  0
SCALE
  5
77A
102
{ACAD_REACTORS
330
772
102
}
330
772
100
AcDbScale
 70
     0
300
3/16" = 1'-0"
140
0.1875
141
12.0
290
     0
  0
SCALE
  5
77B
102
{ACAD_REACTORS
330
772
102
}
330
772
100
AcDbScale
 70
     0
300
1/4" = 1'-0"
140
0.25
141
12.0
290
     0
  0
SCALE
  5
77C
102
{ACAD_REACTORS
330
772
102
}
330
772
100
AcDbScale
 70
     0
300
3/8" = 1'-0"
140
0.375
141
12.0
290
     0
  0
SCALE
  5
77D
102
{ACAD_REACTORS
330
772
102
}
330
772
100
AcDbScale
 70
     0
300
1/2" = 1'-0"
140
0.5
141
12.0
290
     0
  0
SCALE
  5
77E
102
{ACAD_REACTORS
330
772
102
}
330
772
100
AcDbScale
 70
     0
300
3/4" = 1'-0"
140
0.75
141
12.0
290
     0
  0
SCALE
  5
77F
102
{ACAD_REACTORS
330
772
102
}
330
772
100
AcDbScale
 70
     0
300
1" = 1'-0"
140
1.0
141
12.0
290
     0
  0
SCALE
  5
780
102
{ACAD_REACTORS
330
772
102
}
330
772
100
AcDbScale
 70
     0
300
1-1/2" = 1'-0"
140
1.5
141
12.0
290
     0
  0
SCALE
  5
781
102
{ACAD_REACTORS
330
772
102
}
330
772
100
AcDbScale
 70
     0
300
3" = 1'-0"
140
3.0
141
12.0
290
     0
  0
SCALE
  5
782
102
{ACAD_REACTORS
330
772
102
}
330
772
100
AcDbScale
 70
     0
300
6" = 1'-0"
140
6.0
141
12.0
290
     0
  0
SCALE
  5
783
102
{ACAD_REACTORS
330
772
102
}
330
772
100
AcDbScale
 70
     0
300
1'-0" = 1'-0"
140
12.0
141
12.0
290
     0
  0
ACDBSECTIONVIEWSTYLE
  5
788
102
{ACAD_REACTORS
330
786
102
}
330
786
100
AcDbModelDocViewStyle
 70
     0
  3
Imperial24
290
     0
100
AcDbSectionViewStyle
 70
     0
 71
     0
 90
       78
 71
     1
340
11
 62
   256
 40
0.24
340
0
340
0
 62
   256
 40
0.24
300
I, O, Q, S, X, Z
 40
0.48
 90
        3
 40
0.18
 90
        1
 71
     2
340
787
 90
       25
 62
   256
340
16
 90
       50
 62
   256
 40
0.24
 40
0.0
 40
0.24
 71
     3
340
11
 62
   256
 40
0.24
 90
        1
 40
0.75
 90
        1
300
%<\AcVar ViewType \f "%tc1">% %<\AcVar ViewSectionStartId>%-%<\AcVar ViewSectionEndId>%\PSCALE %<\AcVar ViewScale \f "%sn">%
 71
     4
 62
   256
 62
   257
300
ANSI31
 40
1.0
 90
        0
290
     0
290
     0
 90
        6
 40
0.0
 40
1.570796326794896
 40
0.2617993877991494
 40
1.308996938995747
 40
-0.2617993877991494
 40
1.832595714594046
  0
TABLESTYLE
  5
771
102
{ACAD_XDICTIONARY
360
C52
102
}
102
{ACAD_REACTORS
330
748
102
}
330
748
100
AcDbTableStyle
280
     0
  3
Standard
 70
     0
 71
     0
 40
0.06
 41
0.06
280
     0
281
     0
  7
STANDARD
140
0.18
170
     2
 62
     0
 63
     7
283
     0
 90
      512
 91
        0
  1

274
    -2
284
     1
 64
     0
275
    -2
285
     1
 65
     0
276
    -2
286
     1
 66
     0
277
    -2
287
     1
 67
     0
278
    -2
288
     1
 68
     0
279
    -2
289
     1
 69
     0
  7
STANDARD
140
0.25
170
     5
 62
     0
 63
     7
283
     0
 90
      512
 91
        0
  1

274
    -2
284
     1
 64
     0
275
    -2
285
     1
 65
     0
276
    -2
286
     1
 66
     0
277
    -2
287
     1
 67
     0
278
    -2
288
     1
 68
     0
279
    -2
289
     1
 69
     0
  7
STANDARD
140
0.18
170
     5
 62
     0
 63
     7
283
     0
 90
      512
 91
        0
  1

274
    -2
284
     1
 64
     0
275
    -2
285
     1
 65
     0
276
    -2
286
     1
 66
     0
277
    -2
287
     1
 67
     0
278
    -2
288
     1
 68
     0
279
    -2
289
     1
 69
     0
  0
VISUALSTYLE
  5
2F
102
{ACAD_REACTORS
330
2A
102
}
330
2A
100
AcDbVisualStyle
  2

 70
     4
177
     3
291
     0
 70
    58
 90
        0
176
     1
 90
        2
176
     1
 90
        0
176
     1
 90
        0
176
     1
 40
0.6
176
     1
 40
30.0
176
     1
 62
     7
176
     1
 90
        1
176
     1
 90
        4
176
     1
 62
     7
176
     1
 62
   257
176
     1
 90
        1
176
     1
 90
        1
176
     1
 40
1.0
176
     1
 90
        0
176
     1
 62
   257
176
     1
 40
1.0
176
     1
 90
        1
176
     1
 90
        6
176
     1
 90
        2
176
     1
 62
     7
176
     1
 90
        5
176
     1
 90
        0
176
     1
 90
        0
176
     1
290
     0
176
     1
 90
        1
176
     1
 40
0.0
176
     1
 90
        0
176
     1
290
     1
176
     1
290
     1
176
     1
290
     0
176
     1
290
     0
176
     1
290
     0
176
     1
290
     0
176
     1
290
     0
176
     1
290
     0
176
     1
290
     0
176
     1
 90
       50
176
     1
 40
0.0
176
     1
 40
1.0
176
     1
 90
        0
176
     1
 62
    18
420
        0
176
     1
 90
       50
176
     1
 90
        3
176
     1
 62
     5
420
      255
176
     1
290
     0
176
     1
 90
       50
176
     1
 90
       50
176
     1
 90
       50
176
     1
290
     0
176
     1
 90
       50
176
     1
 62
   256
176
     0
 40
1.0
176
     0
 90
        2
176
     1
  1
strokes_ogs.tif
176
     1
290
     0
176
     1
 40
1.0
176
     1
 40
1.0
176
     1
  0
VISUALSTYLE
  5
31
102
{ACAD_REACTORS
330
2A
102
}
330
2A
100
AcDbVisualStyle
  2

 70
     6
177
     3
291
     0
 70
    58
 90
        1
176
     1
 90
        2
176
     1
 90
        2
176
     1
 90
        0
176
     1
 40
0.6
176
     1
 40
30.0
176
     1
 62
     7
176
     1
 90
        2
176
     1
 90
        2
176
     1
 62
     7
176
     1
 62
   257
176
     1
 90
        2
176
     1
 90
        1
176
     1
 40
40.0
176
     1
 90
        0
176
     1
 62
   257
176
     1
 40
1.0
176
     1
 90
        1
176
     1
 90
        6
176
     1
 90
        2
176
     1
 62
     7
176
     1
 90
        3
176
     1
 90
        0
176
     1
 90
        0
176
     1
290
     0
176
     1
 90
        1
176
     1
 40
0.0
176
     1
 90
        0
176
     1
290
     0
176
     1
290
     1
176
     1
290
     1
176
     1
290
     0
176
     1
290
     0
176
     1
290
     0
176
     1
290
     0
176
     1
290
     0
176
     1
290
     0
176
     1
 90
       50
176
     1
 40
0.0
176
     1
 40
1.0
176
     1
 90
        0
176
     1
 62
    18
420
        0
176
     1
 90
       50
176
     1
 90
        3
176
     1
 62
     5
420
      255
176
     1
290
     0
176
     1
 90
       50
176
     1
 90
       50
176
     1
 90
       50
176
     1
290
     0
176
     1
 90
       50
176
     1
 62
   256
176
     0
 40
1.0
176
     0
 90
        2
176
     1
  1
strokes_ogs.tif
176
     1
290
     0
176
     1
 40
1.0
176
     1
 40
1.0
176
     1
  0
VISUALSTYLE
  5
30
102
{ACAD_REACTORS
330
2A
102
}
330
2A
100
AcDbVisualStyle
  2

 70
     5
177
     3
291
     0
 70
    58
 90
        0
176
     1
 90
        2
176
     1
 90
        0
176
     1
 90
        0
176
     1
 40
0.6
176
     1
 40
30.0
176
     1
 62
     7
176
     1
 90
        1
176
     1
 90
        4
176
     1
 62
     7
176
     1
 62
   257
176
     1
 90
        1
176
     1
 90
        1
176
     1
 40
1.0
176
     1
 90
        0
176
     1
 62
   257
176
     1
 40
1.0
176
     1
 90
        1
176
     1
 90
        6
176
     1
 90
        2
176
     1
 62
     7
176
     1
 90
        5
176
     1
 90
        0
176
     1
 90
        0
176
     1
290
     0
176
     1
 90
        1
176
     1
 40
0.0
176
     1
 90
        0
176
     1
290
     0
176
     1
290
     1
176
     1
290
     1
176
     1
290
     0
176
     1
290
     0
176
     1
290
     0
176
     1
290
     0
176
     1
290
     0
176
     1
290
     0
176
     1
 90
       50
176
     1
 40
0.0
176
     1
 40
1.0
176
     1
 90
        0
176
     1
 62
    18
420
        0
176
     1
 90
       50
176
     1
 90
        3
176
     1
 62
     5
420
      255
176
     1
290
     0
176
     1
 90
       50
176
     1
 90
       50
176
     1
 90
       50
176
     1
290
     0
176
     1
 90
       50
176
     1
 62
   256
176
     0
 40
1.0
176
     0
 90
        2
176
     1
  1
strokes_ogs.tif
176
     1
290
     0
176
     1
 40
1.0
176
     1
 40
1.0
176
     1
  0
VISUALSTYLE
  5
32
102
{ACAD_REACTORS
330
2A
102
}
330
2A
100
AcDbVisualStyle
  2

 70
     7
177
     3
291
     1
 70
    58
 90
        1
176
     1
 90
        0
176
     1
 90
        1
176
     1
 90
        0
176
     1
 40
0.6
176
     1
 40
30.0
176
     1
 62
     7
176
     1
 90
        0
176
     1
 90
        4
176
     1
 62
     7
176
     1
 62
   257
176
     1
 90
        1
176
     1
 90
        1
176
     1
 40
1.0
176
     1
 90
        8
176
     1
 62
     7
176
     1
 40
1.0
176
     1
 90
        1
176
     1
 90
        6
176
     1
 90
        2
176
     1
 62
     7
176
     1
 90
        5
176
     1
 90
        0
176
     1
 90
        0
176
     1
290
     0
176
     1
 90
        1
176
     1
 40
0.0
176
     1
 90
        0
176
     1
290
     0
176
     1
290
     1
176
     1
290
     1
176
     1
290
     0
176
     1
290
     0
176
     1
290
     0
176
     1
290
     0
176
     1
290
     0
176
     1
290
     0
176
     1
 90
       50
176
     1
 40
0.0
176
     1
 40
1.0
176
     1
 90
        0
176
     1
 62
    18
420
        0
176
     1
 90
       50
176
     1
 90
        3
176
     1
 62
     5
420
      255
176
     1
290
     0
176
     1
 90
       50
176
     1
 90
       50
176
     1
 90
       50
176
     1
290
     0
176
     1
 90
       50
176
     1
 62
   256
176
     0
 40
1.0
176
     0
 90
        2
176
     1
  1
strokes_ogs.tif
176
     1
290
     0
176
     1
 40
1.0
176
     1
 40
1.0
176
     1
  0
VISUALSTYLE
  5
36
102
{ACAD_REACTORS
330
2A
102
}
330
2A
100
AcDbVisualStyle
  2

 70
    12
177
     3
291
     1
 70
    58
 90
        2
176
     1
 90
        2
176
     1
 90
        0
176
     1
 90
        0
176
     1
 40
0.6
176
     1
 40
30.0
176
     1
 62
     7
176
     1
 90
        1
176
     1
 90
        4
176
     1
 62
     7
176
     1
 62
   257
176
     1
 90
        1
176
     1
 90
        1
176
     1
 40
1.0
176
     1
 90
        8
176
     1
 62
     7
176
     1
 40
1.0
176
     1
 90
        1
176
     1
 90
        6
176
     1
 90
        2
176
     1
 62
     7
176
     1
 90
        5
176
     1
 90
        0
176
     1
 90
        0
176
     1
290
     0
176
     1
 90
        1
176
     1
 40
50.0
176
     1
 90
        0
176
     1
290
     0
176
     1
290
     1
176
     1
290
     1
176
     1
290
     0
176
     1
290
     0
176
     1
290
     0
176
     1
290
     0
176
     1
290
     0
176
     1
290
     0
176
     1
 90
       50
176
     1
 40
0.0
176
     1
 40
1.0
176
     1
 90
        0
176
     1
 62
    18
420
        0
176
     1
 90
       50
176
     1
 90
        3
176
     1
 62
     5
420
      255
176
     1
290
     0
176
     1
 90
       50
176
     1
 90
       50
176
     1
 90
       50
176
     1
290
     0
176
     1
 90
       50
176
     1
 62
   256
176
     0
 40
1.0
176
     0
 90
        2
176
     1
  1
strokes_ogs.tif
176
     1
290
     0
176
     1
 40
1.0
176
     1
 40
1.0
176
     1
  0
VISUALSTYLE
  5
3A
102
{ACAD_REACTORS
330
2A
102
}
330
2A
100
AcDbVisualStyle
  2

 70
    16
177
     3
291
     1
 70
    58
 90
        2
176
     1
 90
        2
176
     1
 90
        3
176
     1
 90
        0
176
     1
 40
0.6
176
     1
 40
30.0
176
     1
 62
     8
176
     1
 90
        1
176
     1
 90
        4
176
     1
 62
     7
176
     1
 62
   257
176
     1
 90
        1
176
     1
 90
        1
176
     1
 40
1.0
176
     1
 90
        8
176
     1
 62
     8
176
     1
 40
1.0
176
     1
 90
        1
176
     1
 90
        6
176
     1
 90
        2
176
     1
 62
     7
176
     1
 90
        5
176
     1
 90
        0
176
     1
 90
        0
176
     1
290
     0
176
     1
 90
        1
176
     1
 40
0.0
176
     1
 90
        0
176
     1
290
     0
176
     1
290
     1
176
     1
290
     1
176
     1
290
     0
176
     1
290
     0
176
     1
290
     0
176
     1
290
     0
176
     1
290
     0
176
     1
290
     0
176
     1
 90
       50
176
     1
 40
0.0
176
     1
 40
1.0
176
     1
 90
        0
176
     1
 62
    18
420
        0
176
     1
 90
       50
176
     1
 90
        3
176
     1
 62
     5
420
      255
176
     1
290
     0
176
     1
 90
       50
176
     1
 90
       50
176
     1
 90
       50
176
     1
290
     0
176
     1
 90
       50
176
     1
 62
   256
176
     0
 40
1.0
176
     0
 90
        2
176
     1
  1
strokes_ogs.tif
176
     1
290
     0
176
     1
 40
1.0
176
     1
 40
1.0
176
     1
  0
VISUALSTYLE
  5
34
102
{ACAD_REACTORS
330
2A
102
}
330
2A
100
AcDbVisualStyle
  2

 70
     9
177
     3
291
     0
 70
    58
 90
        3
176
     1
 90
        2
176
     1
 90
        0
176
     1
 90
        0
176
     1
 40
0.6
176
     1
 40
30.0
176
     1
 62
     7
176
     1
 90
        2
176
     1
 90
        2
176
     1
 62
     7
176
     1
 62
   257
176
     1
 90
        1
176
     1
 90
        1
176
     1
 40
40.0
176
     1
 90
        8
176
     1
 62
     7
176
     1
 40
1.0
176
     1
 90
        1
176
     1
 90
        6
176
     1
 90
        2
176
     1
 62
     7
176
     1
 90
        3
176
     1
 90
        0
176
     1
 90
        0
176
     1
290
     0
176
     1
 90
        1
176
     1
 40
0.0
176
     1
 90
        0
176
     1
290
     0
176
     1
290
     1
176
     1
290
     1
176
     1
290
     0
176
     1
290
     0
176
     1
290
     0
176
     1
290
     0
176
     1
290
     0
176
     1
290
     0
176
     1
 90
       50
176
     1
 40
0.0
176
     1
 40
1.0
176
     1
 90
        0
176
     1
 62
    18
420
        0
176
     1
 90
       50
176
     1
 90
        3
176
     1
 62
     5
420
      255
176
     1
290
     0
176
     1
 90
       50
176
     1
 90
       50
176
     1
 90
       50
176
     1
290
     0
176
     1
 90
       50
176
     1
 62
   256
176
     0
 40
1.0
176
     0
 90
        2
176
     1
  1
strokes_ogs.tif
176
     1
290
     0
176
     1
 40
1.0
176
     1
 40
1.0
176
     1
  0
VISUALSTYLE
  5
35
102
{ACAD_REACTORS
330
2A
102
}
330
2A
100
AcDbVisualStyle
  2

 70
    11
177
     3
291
     1
 70
    58
 90
        2
176
     1
 90
        2
176
     1
 90
        0
176
     1
 90
        0
176
     1
 40
0.6
176
     1
 40
30.0
176
     1
 62
     7
176
     1
 90
        1
176
     1
 90
        4
176
     1
 62
     7
176
     1
 62
   257
176
     1
 90
        1
176
     1
 90
        1
176
     1
 40
1.0
176
     1
 90
        8
176
     1
 62
     7
176
     1
 40
1.0
176
     1
 90
        1
176
     1
 90
        6
176
     1
 90
        2
176
     1
 62
     7
176
     1
 90
        5
176
     1
 90
        0
176
     1
 90
        0
176
     1
290
     0
176
     1
 90
        1
176
     1
 40
-50.0
176
     1
 90
        0
176
     1
290
     0
176
     1
290
     1
176
     1
290
     1
176
     1
290
     0
176
     1
290
     0
176
     1
290
     0
176
     1
290
     0
176
     1
290
     0
176
     1
290
     0
176
     1
 90
       50
176
     1
 40
0.0
176
     1
 40
1.0
176
     1
 90
        0
176
     1
 62
    18
420
        0
176
     1
 90
       50
176
     1
 90
        3
176
     1
 62
     5
420
      255
176
     1
290
     0
176
     1
 90
       50
176
     1
 90
       50
176
     1
 90
       50
176
     1
290
     0
176
     1
 90
       50
176
     1
 62
   256
176
     0
 40
1.0
176
     0
 90
        2
176
     1
  1
strokes_ogs.tif
176
     1
290
     0
176
     1
 40
1.0
176
     1
 40
1.0
176
     1
  0
VISUALSTYLE
  5
76F
102
{ACAD_REACTORS
330
2A
102
}
330
2A
100
AcDbVisualStyle
  2
EdgeColorOff
 70
    22
177
     3
291
     1
 70
    58
 90
        2
176
     0
 90
        2
176
     0
 90
        0
176
     0
 90
        0
176
     0
 40
0.6
176
     0
 40
30.0
176
     0
 62
     7
420
 16777215
176
     0
 90
        1
176
     0
 90
        4
176
     0
 62
     7
176
     0
 62
   257
176
     0
 90
        1
176
     0
 90
        1
176
     0
 40
1.0
176
     0
 90
        8
176
     2
 62
     7
176
     0
 40
1.0
176
     0
 90
        1
176
     0
 90
        6
176
     0
 90
        2
176
     0
 62
     7
176
     0
 90
        5
176
     0
 90
        0
176
     0
 90
        0
176
     0
290
     0
176
     0
 90
        1
176
     0
 40
0.0
176
     0
 90
        0
176
     0
290
     0
176
     1
290
     1
176
     1
290
     1
176
     1
290
     0
176
     1
290
     0
176
     1
290
     0
176
     1
290
     0
176
     1
290
     0
176
     1
290
     0
176
     1
 90
       50
176
     0
 40
0.0
176
     0
 40
1.0
176
     0
 90
        0
176
     0
 62
    18
420
        0
176
     0
 90
       50
176
     0
 90
        3
176
     0
 62
     5
420
      255
176
     0
290
     0
176
     1
 90
       50
176
     0
 90
       50
176
     0
 90
       50
176
     0
290
     0
176
     1
 90
       50
176
     0
 62
   256
176
     0
 40
1.0
176
     0
 90
        2
176
     0
  1
strokes_ogs.tif
176
     0
290
     0
176
     1
 40
1.0
176
     0
 40
1.0
176
     0
  0
VISUALSTYLE
  5
39
102
{ACAD_REACTORS
330
2A
102
}
330
2A
100
AcDbVisualStyle
  2

 70
    15
177
     3
291
     1
 70
    58
 90
        2
176
     1
 90
        2
176
     1
 90
        0
176
     1
 90
        0
176
     1
 40
0.6
176
     1
 40
30.0
176
     1
 62
     7
176
     1
 90
        1
176
     1
 90
        4
176
     1
 62
     7
176
     1
 62
   257
176
     1
 90
        1
176
     1
 90
        1
176
     1
 40
1.0
176
     1
 90
        8
176
     1
 62
     7
176
     1
 40
1.0
176
     1
 90
        1
176
     1
 90
        6
176
     1
 90
        2
176
     1
 62
     7
176
     1
 90
        5
176
     1
 90
        0
176
     1
 90
        0
176
     1
290
     0
176
     1
 90
        1
176
     1
 40
0.0
176
     1
 90
        0
176
     1
290
     0
176
     1
290
     1
176
     1
290
     1
176
     1
290
     0
176
     1
290
     0
176
     1
290
     0
176
     1
290
     0
176
     1
290
     0
176
     1
290
     0
176
     1
 90
       50
176
     1
 40
0.0
176
     1
 40
1.0
176
     1
 90
        0
176
     1
 62
    18
420
        0
176
     1
 90
       50
176
     1
 90
        3
176
     1
 62
     5
420
      255
176
     1
290
     0
176
     1
 90
       50
176
     1
 90
       50
176
     1
 90
       50
176
     1
290
     0
176
     1
 90
       50
176
     1
 62
   256
176
     0
 40
1.0
176
     0
 90
        2
176
     1
  1
strokes_ogs.tif
176
     1
290
     0
176
     1
 40
1.0
176
     1
 40
1.0
176
     1
  0
VISUALSTYLE
  5
2B
102
{ACAD_REACTORS
330
2A
102
}
330
2A
100
AcDbVisualStyle
  2

 70
     0
177
     3
291
     1
 70
    58
 90
        2
176
     1
 90
        1
176
     1
 90
        1
176
     1
 90
        2
176
     1
 40
0.6
176
     1
 40
30.0
176
     1
 62
     7
176
     1
 90
        0
176
     1
 90
        4
176
     1
 62
     7
176
     1
 62
   257
176
     1
 90
        1
176
     1
 90
        1
176
     1
 40
1.0
176
     1
 90
        8
176
     1
 62
     7
176
     1
 40
1.0
176
     1
 90
        1
176
     1
 90
        6
176
     1
 90
        2
176
     1
 62
     7
176
     1
 90
        5
176
     1
 90
        0
176
     1
 90
        0
176
     1
290
     0
176
     1
 90
       13
176
     1
 40
0.0
176
     1
 90
        0
176
     1
290
     0
176
     1
290
     1
176
     1
290
     1
176
     1
290
     0
176
     1
290
     0
176
     1
290
     0
176
     1
290
     0
176
     1
290
     0
176
     1
290
     0
176
     1
 90
       50
176
     1
 40
0.0
176
     1
 40
1.0
176
     1
 90
        0
176
     1
 62
    18
420
        0
176
     1
 90
       50
176
     1
 90
        3
176
     1
 62
     5
420
      255
176
     1
290
     0
176
     1
 90
       50
176
     1
 90
       50
176
     1
 90
       50
176
     1
290
     0
176
     1
 90
       50
176
     1
 62
   256
176
     0
 40
1.0
176
     0
 90
        2
176
     1
  1
strokes_ogs.tif
176
     1
290
     0
176
     1
 40
1.0
176
     1
 40
1.0
176
     1
  0
VISUALSTYLE
  5
2C
102
{ACAD_REACTORS
330
2A
102
}
330
2A
100
AcDbVisualStyle
  2

 70
     1
177
     3
291
     1
 70
    58
 90
        2
176
     1
 90
        1
176
     1
 90
        1
176
     1
 90
        2
176
     1
 40
0.6
176
     1
 40
30.0
176
     1
 62
     7
176
     1
 90
        1
176
     1
 90
        4
176
     1
 62
     7
176
     1
 62
   257
176
     1
 90
        1
176
     1
 90
        1
176
     1
 40
1.0
176
     1
 90
        0
176
     1
 62
   257
176
     1
 40
1.0
176
     1
 90
        1
176
     1
 90
        6
176
     1
 90
        2
176
     1
 62
     7
176
     1
 90
        5
176
     1
 90
        0
176
     1
 90
        0
176
     1
290
     0
176
     1
 90
       13
176
     1
 40
0.0
176
     1
 90
        0
176
     1
290
     0
176
     1
290
     1
176
     1
290
     1
176
     1
290
     0
176
     1
290
     0
176
     1
290
     0
176
     1
290
     0
176
     1
290
     0
176
     1
290
     0
176
     1
 90
       50
176
     1
 40
0.0
176
     1
 40
1.0
176
     1
 90
        0
176
     1
 62
    18
420
        0
176
     1
 90
       50
176
     1
 90
        3
176
     1
 62
     5
420
      255
176
     1
290
     0
176
     1
 90
       50
176
     1
 90
       50
176
     1
 90
       50
176
     1
290
     0
176
     1
 90
       50
176
     1
 62
   256
176
     0
 40
1.0
176
     0
 90
        2
176
     1
  1
strokes_ogs.tif
176
     1
290
     0
176
     1
 40
1.0
176
     1
 40
1.0
176
     1
  0
VISUALSTYLE
  5
2D
102
{ACAD_REACTORS
330
2A
102
}
330
2A
100
AcDbVisualStyle
  2

 70
     2
177
     3
291
     1
 70
    58
 90
        2
176
     1
 90
        2
176
     1
 90
        1
176
     1
 90
        2
176
     1
 40
0.6
176
     1
 40
30.0
176
     1
 62
     7
176
     1
 90
        0
176
     1
 90
        4
176
     1
 62
     7
176
     1
 62
   257
176
     1
 90
        1
176
     1
 90
        1
176
     1
 40
1.0
176
     1
 90
        0
176
     1
 62
     7
176
     1
 40
1.0
176
     1
 90
        1
176
     1
 90
        6
176
     1
 90
        2
176
     1
 62
     7
176
     1
 90
        5
176
     1
 90
        0
176
     1
 90
        0
176
     1
290
     0
176
     1
 90
       13
176
     1
 40
0.0
176
     1
 90
        0
176
     1
290
     0
176
     1
290
     1
176
     1
290
     1
176
     1
290
     0
176
     1
290
     0
176
     1
290
     0
176
     1
290
     0
176
     1
290
     0
176
     1
290
     0
176
     1
 90
       50
176
     1
 40
0.0
176
     1
 40
1.0
176
     1
 90
        0
176
     1
 62
    18
420
        0
176
     1
 90
       50
176
     1
 90
        3
176
     1
 62
     5
420
      255
176
     1
290
     0
176
     1
 90
       50
176
     1
 90
       50
176
     1
 90
       50
176
     1
290
     0
176
     1
 90
       50
176
     1
 62
   256
176
     0
 40
1.0
176
     0
 90
        2
176
     1
  1
strokes_ogs.tif
176
     1
290
     0
176
     1
 40
1.0
176
     1
 40
1.0
176
     1
  0
VISUALSTYLE
  5
2E
102
{ACAD_REACTORS
330
2A
102
}
330
2A
100
AcDbVisualStyle
  2

 70
     3
177
     3
291
     1
 70
    58
 90
        2
176
     1
 90
        2
176
     1
 90
        1
176
     1
 90
        2
176
     1
 40
0.6
176
     1
 40
30.0
176
     1
 62
     7
176
     1
 90
        1
176
     1
 90
        4
176
     1
 62
     7
176
     1
 62
   257
176
     1
 90
        1
176
     1
 90
        1
176
     1
 40
1.0
176
     1
 90
        0
176
     1
 62
   257
176
     1
 40
1.0
176
     1
 90
        1
176
     1
 90
        6
176
     1
 90
        2
176
     1
 62
     7
176
     1
 90
        5
176
     1
 90
        0
176
     1
 90
        0
176
     1
290
     0
176
     1
 90
       13
176
     1
 40
0.0
176
     1
 90
        0
176
     1
290
     0
176
     1
290
     1
176
     1
290
     1
176
     1
290
     0
176
     1
290
     0
176
     1
290
     0
176
     1
290
     0
176
     1
290
     0
176
     1
290
     0
176
     1
 90
       50
176
     1
 40
0.0
176
     1
 40
1.0
176
     1
 90
        0
176
     1
 62
    18
420
        0
176
     1
 90
       50
176
     1
 90
        3
176
     1
 62
     5
420
      255
176
     1
290
     0
176
     1
 90
       50
176
     1
 90
       50
176
     1
 90
       50
176
     1
290
     0
176
     1
 90
       50
176
     1
 62
   256
176
     0
 40
1.0
176
     0
 90
        2
176
     1
  1
strokes_ogs.tif
176
     1
290
     0
176
     1
 40
1.0
176
     1
 40
1.0
176
     1
  0
VISUALSTYLE
  5
767
102
{ACAD_REACTORS
330
2A
102
}
330
2A
100
AcDbVisualStyle
  2
Hidden
 70
     6
177
     3
291
     0
 70
    58
 90
        1
176
     1
 90
        2
176
     1
 90
        2
176
     1
 90
        0
176
     1
 40
0.6
176
     1
 40
30.0
176
     1
 62
     7
420
 16777215
176
     1
 90
        2
176
     1
 90
        2
176
     1
 62
     7
176
     1
 62
   257
176
     1
 90
        2
176
     1
 90
        1
176
     1
 40
40.0
176
     1
 90
        0
176
     1
 62
   257
176
     1
 40
1.0
176
     1
 90
        1
176
     1
 90
        6
176
     1
 90
        2
176
     1
 62
     7
176
     1
 90
        3
176
     1
 90
        0
176
     1
 90
        0
176
     1
290
     0
176
     1
 90
        1
176
     1
 40
0.0
176
     1
 90
        0
176
     1
290
     0
176
     1
290
     1
176
     1
290
     1
176
     1
290
     0
176
     1
290
     0
176
     1
290
     0
176
     1
290
     0
176
     1
290
     0
176
     1
290
     0
176
     1
 90
       50
176
     1
 40
0.0
176
     1
 40
1.0
176
     1
 90
        0
176
     1
 62
    18
420
        0
176
     1
 90
       50
176
     1
 90
        3
176
     1
 62
     5
420
      255
176
     1
290
     0
176
     1
 90
       50
176
     1
 90
       50
176
     1
 90
       50
176
     1
290
     0
176
     1
 90
       50
176
     1
 62
   256
176
     0
 40
1.0
176
     0
 90
        2
176
     1
  1
strokes_ogs.tif
176
     1
290
     0
176
     1
 40
1.0
176
     1
 40
1.0
176
     1
  0
VISUALSTYLE
  5
76D
102
{ACAD_REACTORS
330
2A
102
}
330
2A
100
AcDbVisualStyle
  2
JitterOff
 70
    20
177
     3
291
     1
 70
    58
 90
        2
176
     0
 90
        2
176
     0
 90
        0
176
     0
 90
        0
176
     0
 40
0.6
176
     0
 40
30.0
176
     0
 62
     7
420
 16777215
176
     0
 90
        1
176
     0
 90
        4
176
     0
 62
     7
176
     0
 62
   257
176
     0
 90
        1
176
     0
 90
        1
176
     0
 40
1.0
176
     0
 90
       10
176
     2
 62
     7
176
     0
 40
1.0
176
     0
 90
        1
176
     0
 90
        6
176
     0
 90
        2
176
     0
 62
     7
176
     0
 90
        5
176
     0
 90
        0
176
     0
 90
        0
176
     0
290
     0
176
     0
 90
        1
176
     0
 40
0.0
176
     0
 90
        0
176
     0
290
     0
176
     1
290
     1
176
     1
290
     1
176
     1
290
     0
176
     1
290
     0
176
     1
290
     0
176
     1
290
     0
176
     1
290
     0
176
     1
290
     0
176
     1
 90
       50
176
     0
 40
0.0
176
     0
 40
1.0
176
     0
 90
        0
176
     0
 62
    18
420
        0
176
     0
 90
       50
176
     0
 90
        3
176
     0
 62
     5
420
      255
176
     0
290
     0
176
     1
 90
       50
176
     0
 90
       50
176
     0
 90
       50
176
     0
290
     0
176
     1
 90
       50
176
     0
 62
   256
176
     0
 40
1.0
176
     0
 90
        2
176
     0
  1
strokes_ogs.tif
176
     0
290
     0
176
     1
 40
1.0
176
     0
 40
1.0
176
     0
  0
VISUALSTYLE
  5
38
102
{ACAD_REACTORS
330
2A
102
}
330
2A
100
AcDbVisualStyle
  2

 70
    14
177
     3
291
     1
 70
    58
 90
        2
176
     1
 90
        2
176
     1
 90
        0
176
     1
 90
        0
176
     1
 40
0.6
176
     1
 40
30.0
176
     1
 62
     7
176
     1
 90
        1
176
     1
 90
        4
176
     1
 62
     7
176
     1
 62
   257
176
     1
 90
        7
176
     1
 90
        7
176
     1
 40
1.0
176
     1
 90
        8
176
     1
 62
     7
176
     1
 40
1.0
176
     1
 90
        1
176
     1
 90
        6
176
     1
 90
        2
176
     1
 62
     7
176
     1
 90
        5
176
     1
 90
        0
176
     1
 90
        0
176
     1
290
     0
176
     1
 90
        1
176
     1
 40
0.0
176
     1
 90
        0
176
     1
290
     0
176
     1
290
     1
176
     1
290
     1
176
     1
290
     0
176
     1
290
     0
176
     1
290
     0
176
     1
290
     0
176
     1
290
     0
176
     1
290
     0
176
     1
 90
       50
176
     1
 40
0.0
176
     1
 40
1.0
176
     1
 90
        0
176
     1
 62
    18
420
        0
176
     1
 90
       50
176
     1
 90
        3
176
     1
 62
     5
420
      255
176
     1
290
     0
176
     1
 90
       50
176
     1
 90
       50
176
     1
 90
       50
176
     1
290
     0
176
     1
 90
       50
176
     1
 62
   256
176
     0
 40
1.0
176
     0
 90
        2
176
     1
  1
strokes_ogs.tif
176
     1
290
     0
176
     1
 40
1.0
176
     1
 40
1.0
176
     1
  0
VISUALSTYLE
  5
76E
102
{ACAD_REACTORS
330
2A
102
}
330
2A
100
AcDbVisualStyle
  2
OverhangOff
 70
    21
177
     3
291
     1
 70
    58
 90
        2
176
     0
 90
        2
176
     0
 90
        0
176
     0
 90
        0
176
     0
 40
0.6
176
     0
 40
30.0
176
     0
 62
     7
420
 16777215
176
     0
 90
        1
176
     0
 90
        4
176
     0
 62
     7
176
     0
 62
   257
176
     0
 90
        1
176
     0
 90
        1
176
     0
 40
1.0
176
     0
 90
        9
176
     2
 62
     7
176
     0
 40
1.0
176
     0
 90
        1
176
     0
 90
        6
176
     0
 90
        2
176
     0
 62
     7
176
     0
 90
        5
176
     0
 90
        0
176
     0
 90
        0
176
     0
290
     0
176
     0
 90
        1
176
     0
 40
0.0
176
     0
 90
        0
176
     0
290
     0
176
     1
290
     1
176
     1
290
     1
176
     1
290
     0
176
     1
290
     0
176
     1
290
     0
176
     1
290
     0
176
     1
290
     0
176
     1
290
     0
176
     1
 90
       50
176
     0
 40
0.0
176
     0
 40
1.0
176
     0
 90
        0
176
     0
 62
    18
420
        0
176
     0
 90
       50
176
     0
 90
        3
176
     0
 62
     5
420
      255
176
     0
290
     0
176
     1
 90
       50
176
     0
 90
       50
176
     0
 90
       50
176
     0
290
     0
176
     1
 90
       50
176
     0
 62
   256
176
     0
 40
1.0
176
     0
 90
        2
176
     0
  1
strokes_ogs.tif
176
     0
290
     0
176
     1
 40
1.0
176
     0
 40
1.0
176
     0
  0
VISUALSTYLE
  5
33
102
{ACAD_REACTORS
330
2A
102
}
330
2A
100
AcDbVisualStyle
  2

 70
     8
177
     3
291
     0
 70
    58
 90
        2
176
     1
 90
        2
176
     1
 90
        0
176
     1
 90
        0
176
     1
 40
0.6
176
     1
 40
30.0
176
     1
 62
     7
176
     1
 90
        1
176
     1
 90
        0
176
     1
 62
     7
176
     1
 62
   257
176
     1
 90
        1
176
     1
 90
        1
176
     1
 40
1.0
176
     1
 90
        8
176
     1
 62
     8
176
     1
 40
1.0
176
     1
 90
        1
176
     1
 90
        6
176
     1
 90
        2
176
     1
 62
     7
176
     1
 90
        5
176
     1
 90
        0
176
     1
 90
        0
176
     1
290
     0
176
     1
 90
       13
176
     1
 40
0.0
176
     1
 90
        0
176
     1
290
     0
176
     1
290
     1
176
     1
290
     1
176
     1
290
     0
176
     1
290
     0
176
     1
290
     0
176
     1
290
     0
176
     1
290
     0
176
     1
290
     0
176
     1
 90
       50
176
     1
 40
0.0
176
     1
 40
1.0
176
     1
 90
        0
176
     1
 62
    18
420
        0
176
     1
 90
       50
176
     1
 90
        3
176
     1
 62
     5
420
      255
176
     1
290
     0
176
     1
 90
       50
176
     1
 90
       50
176
     1
 90
       50
176
     1
290
     0
176
     1
 90
       50
176
     1
 62
   256
176
     0
 40
1.0
176
     0
 90
        2
176
     1
  1
strokes_ogs.tif
176
     1
290
     0
176
     1
 40
1.0
176
     1
 40
1.0
176
     1
  0
VISUALSTYLE
  5
76C
102
{ACAD_REACTORS
330
2A
102
}
330
2A
100
AcDbVisualStyle
  2
Shaded
 70
    27
177
     3
291
     0
 70
    58
 90
        2
176
     1
 90
        2
176
     1
 90
        1
176
     1
 90
        2
176
     1
 40
0.6
176
     1
 40
30.0
176
     1
 62
     7
420
 16777215
176
     1
 90
        0
176
     1
 90
        4
176
     1
 62
     7
176
     1
 62
   257
176
     1
 90
        1
176
     1
 90
        1
176
     1
 40
1.0
176
     1
 90
        8
176
     1
 62
   257
176
     1
 40
1.0
176
     1
 90
        1
176
     1
 90
        6
176
     1
 90
        2
176
     1
 62
     8
420
  7895160
176
     1
 90
        3
176
     1
 90
        0
176
     1
 90
        0
176
     1
290
     0
176
     1
 90
        5
176
     1
 40
0.0
176
     1
 90
        0
176
     1
290
     0
176
     1
290
     1
176
     1
290
     1
176
     1
290
     0
176
     1
290
     0
176
     1
290
     0
176
     1
290
     0
176
     1
290
     0
176
     1
290
     0
176
     1
 90
       50
176
     1
 40
0.0
176
     1
 40
1.0
176
     1
 90
        0
176
     1
 62
    18
420
        0
176
     1
 90
       50
176
     1
 90
        3
176
     1
 62
     5
420
      255
176
     1
290
     0
176
     1
 90
       50
176
     1
 90
       50
176
     1
 90
       50
176
     1
290
     0
176
     1
 90
       50
176
     1
 62
   256
176
     0
 40
1.0
176
     0
 90
        2
176
     1
  1
strokes_ogs.tif
176
     1
290
     0
176
     1
 40
1.0
176
     1
 40
1.0
176
     1
  0
VISUALSTYLE
  5
76B
102
{ACAD_REACTORS
330
2A
102
}
330
2A
100
AcDbVisualStyle
  2
Shaded with edges
 70
    26
177
     3
291
     0
 70
    58
 90
        2
176
     1
 90
        2
176
     1
 90
        1
176
     1
 90
        2
176
     1
 40
0.6
176
     1
 40
30.0
176
     1
 62
     7
420
 16777215
176
     1
 90
        1
176
     1
 90
       10
176
     1
 62
     7
176
     1
 62
   257
176
     1
 90
        2
176
     1
 90
        1
176
     1
 40
1.0
176
     1
 90
        8
176
     1
 62
   257
176
     1
 40
1.0
176
     1
 90
        1
176
     1
 90
        6
176
     1
 90
        2
176
     1
 62
     7
176
     1
 90
        3
176
     1
 90
        0
176
     1
 90
        0
176
     1
290
     0
176
     1
 90
        5
176
     1
 40
0.0
176
     1
 90
        0
176
     1
290
     0
176
     1
290
     1
176
     1
290
     1
176
     1
290
     0
176
     1
290
     0
176
     1
290
     0
176
     1
290
     0
176
     1
290
     0
176
     1
290
     0
176
     1
 90
       50
176
     1
 40
0.0
176
     1
 40
1.0
176
     1
 90
        0
176
     1
 62
    18
420
        0
176
     1
 90
       50
176
     1
 90
        3
176
     1
 62
     5
420
      255
176
     1
290
     0
176
     1
 90
       50
176
     1
 90
       50
176
     1
 90
       50
176
     1
290
     0
176
     1
 90
       50
176
     1
 62
   256
176
     0
 40
1.0
176
     0
 90
        2
176
     1
  1
strokes_ogs.tif
176
     1
290
     0
176
     1
 40
1.0
176
     1
 40
1.0
176
     1
  0
VISUALSTYLE
  5
768
102
{ACAD_REACTORS
330
2A
102
}
330
2A
100
AcDbVisualStyle
  2
Shades of Gray
 70
    23
177
     3
291
     0
 70
    58
 90
        2
176
     1
 90
        2
176
     1
 90
        3
176
     1
 90
        0
176
     1
 40
0.6
176
     1
 40
30.0
176
     1
 62
     7
420
 16777215
176
     1
 90
        2
176
     1
 90
        2
176
     1
 62
     7
176
     1
 62
     7
176
     1
 90
        1
176
     1
 90
        1
176
     1
 40
40.0
176
     1
 90
        8
176
     1
 62
     7
176
     1
 40
1.0
176
     1
 90
        1
176
     1
 90
        6
176
     1
 90
        2
176
     1
 62
     7
176
     1
 90
        3
176
     1
 90
        0
176
     1
 90
        0
176
     1
290
     0
176
     1
 90
        1
176
     1
 40
0.0
176
     1
 90
        0
176
     1
290
     0
176
     1
290
     1
176
     1
290
     1
176
     1
290
     0
176
     1
290
     0
176
     1
290
     0
176
     1
290
     0
176
     1
290
     0
176
     1
290
     0
176
     1
 90
       50
176
     1
 40
0.0
176
     1
 40
1.0
176
     1
 90
        0
176
     1
 62
    18
420
        0
176
     1
 90
       50
176
     1
 90
        3
176
     1
 62
     5
420
      255
176
     1
290
     0
176
     1
 90
       50
176
     1
 90
       50
176
     1
 90
       50
176
     1
290
     0
176
     1
 90
       50
176
     1
 62
   256
176
     0
 40
1.0
176
     0
 90
        2
176
     1
  1
strokes_ogs.tif
176
     1
290
     0
176
     1
 40
1.0
176
     1
 40
1.0
176
     1
  0
VISUALSTYLE
  5
769
102
{ACAD_REACTORS
330
2A
102
}
330
2A
100
AcDbVisualStyle
  2
Sketchy
 70
    24
177
     3
291
     0
 70
    58
 90
        1
176
     1
 90
        2
176
     1
 90
        2
176
     1
 90
        0
176
     1
 40
0.6
176
     1
 40
30.0
176
     1
 62
     7
420
 16777215
176
     1
 90
        2
176
     1
 90
        2
176
     1
 62
     7
176
     1
 62
     7
176
     1
 90
        1
176
     1
 90
        1
176
     1
 40
40.0
176
     1
 90
       11
176
     1
 62
     7
176
     1
 40
1.0
176
     1
 90
        1
176
     1
 90
        6
176
     1
 90
        2
176
     1
 62
     7
176
     1
 90
        6
176
     1
 90
        0
176
     1
 90
        0
176
     1
290
     0
176
     1
 90
        1
176
     1
 40
0.0
176
     1
 90
        0
176
     1
290
     0
176
     1
290
     1
176
     1
290
     1
176
     1
290
     0
176
     1
290
     0
176
     1
290
     0
176
     1
290
     0
176
     1
290
     0
176
     1
290
     0
176
     1
 90
       50
176
     1
 40
0.0
176
     1
 40
1.0
176
     1
 90
        0
176
     1
 62
    18
420
        0
176
     1
 90
       50
176
     1
 90
        3
176
     1
 62
     5
420
      255
176
     1
290
     0
176
     1
 90
       50
176
     1
 90
       50
176
     1
 90
       50
176
     1
290
     0
176
     1
 90
       50
176
     1
 62
   256
176
     0
 40
1.0
176
     0
 90
        2
176
     1
  1
strokes_ogs.tif
176
     1
290
     0
176
     1
 40
1.0
176
     1
 40
1.0
176
     1
  0
VISUALSTYLE
  5
37
102
{ACAD_REACTORS
330
2A
102
}
330
2A
100
AcDbVisualStyle
  2

 70
    13
177
     3
291
     1
 70
    58
 90
        2
176
     1
 90
        2
176
     1
 90
        0
176
     1
 90
        0
176
     1
 40
0.6
176
     1
 40
30.0
176
     1
 62
     7
176
     1
 90
        1
176
     1
 90
        4
176
     1
 62
     7
176
     1
 62
   257
176
     1
 90
        1
176
     1
 90
        1
176
     1
 40
1.0
176
     1
 90
       12
176
     1
 62
     7
176
     1
 40
1.0
176
     1
 90
        1
176
     1
 90
        6
176
     1
 90
        2
176
     1
 62
     7
176
     1
 90
        5
176
     1
 90
        0
176
     1
 90
        0
176
     1
290
     0
176
     1
 90
        1
176
     1
 40
0.0
176
     1
 90
        0
176
     1
290
     0
176
     1
290
     1
176
     1
290
     1
176
     1
290
     0
176
     1
290
     0
176
     1
290
     0
176
     1
290
     0
176
     1
290
     0
176
     1
290
     0
176
     1
 90
       50
176
     1
 40
0.0
176
     1
 40
1.0
176
     1
 90
        0
176
     1
 62
    18
420
        0
176
     1
 90
       50
176
     1
 90
        3
176
     1
 62
     5
420
      255
176
     1
290
     0
176
     1
 90
       50
176
     1
 90
       50
176
     1
 90
       50
176
     1
290
     0
176
     1
 90
       50
176
     1
 62
   256
176
     0
 40
1.0
176
     0
 90
        2
176
     1
  1
strokes_ogs.tif
176
     1
290
     0
176
     1
 40
1.0
176
     1
 40
1.0
176
     1
  0
VISUALSTYLE
  5
766
102
{ACAD_REACTORS
330
2A
102
}
330
2A
100
AcDbVisualStyle
  2
Wireframe
 70
     5
177
     3
291
     0
 70
    58
 90
        0
176
     1
 90
        2
176
     1
 90
        0
176
     1
 90
        0
176
     1
 40
0.6
176
     1
 40
30.0
176
     1
 62
     7
420
 16777215
176
     1
 90
        1
176
     1
 90
        4
176
     1
 62
     7
176
     1
 62
   257
176
     1
 90
        1
176
     1
 90
        1
176
     1
 40
1.0
176
     1
 90
        0
176
     1
 62
   257
176
     1
 40
1.0
176
     1
 90
        1
176
     1
 90
        6
176
     1
 90
        2
176
     1
 62
     7
176
     1
 90
        3
176
     1
 90
        0
176
     1
 90
        0
176
     1
290
     0
176
     1
 90
        1
176
     1
 40
0.0
176
     1
 90
        0
176
     1
290
     0
176
     1
290
     1
176
     1
290
     1
176
     1
290
     0
176
     1
290
     0
176
     1
290
     0
176
     1
290
     0
176
     1
290
     0
176
     1
290
     0
176
     1
 90
       50
176
     1
 40
0.0
176
     1
 40
1.0
176
     1
 90
        0
176
     1
 62
    18
420
        0
176
     1
 90
       50
176
     1
 90
        3
176
     1
 62
     5
420
      255
176
     1
290
     0
176
     1
 90
       50
176
     1
 90
       50
176
     1
 90
       50
176
     1
290
     0
176
     1
 90
       50
176
     1
 62
   256
176
     0
 40
1.0
176
     0
 90
        2
176
     1
  1
strokes_ogs.tif
176
     1
290
     0
176
     1
 40
1.0
176
     1
 40
1.0
176
     1
  0
VISUALSTYLE
  5
76A
102
{ACAD_REACTORS
330
2A
102
}
330
2A
100
AcDbVisualStyle
  2
X-Ray
 70
    25
177
     3
291
     0
 70
    58
 90
        2
176
     1
 90
        2
176
     1
 90
        1
176
     1
 90
        1
176
     1
 40
0.5
176
     1
 40
30.0
176
     1
 62
     7
420
 16777215
176
     1
 90
        1
176
     1
 90
        0
176
     1
 62
     7
176
     1
 62
   257
176
     1
 90
        1
176
     1
 90
        1
176
     1
 40
1.0
176
     1
 90
        8
176
     1
 62
     7
176
     1
 40
1.0
176
     1
 90
        1
176
     1
 90
        6
176
     1
 90
        2
176
     1
 62
     7
176
     1
 90
        3
176
     1
 90
        0
176
     1
 90
        0
176
     1
290
     0
176
     1
 90
       13
176
     1
 40
0.0
176
     1
 90
        0
176
     1
290
     0
176
     1
290
     1
176
     1
290
     1
176
     1
290
     0
176
     1
290
     0
176
     1
290
     0
176
     1
290
     0
176
     1
290
     0
176
     1
290
     0
176
     1
 90
       50
176
     1
 40
0.0
176
     1
 40
1.0
176
     1
 90
        0
176
     1
 62
    18
420
        0
176
     1
 90
       50
176
     1
 90
        3
176
     1
 62
     5
420
      255
176
     1
290
     0
176
     1
 90
       50
176
     1
 90
       50
176
     1
 90
       50
176
     1
290
     0
176
     1
 90
       50
176
     1
 62
   256
176
     0
 40
1.0
176
     0
 90
        2
176
     1
  1
strokes_ogs.tif
176
     1
290
     0
176
     1
 40
1.0
176
     1
 40
1.0
176
     1
  0
DICTIONARYVAR
  5
B0E
102
{ACAD_REACTORS
330
B08
102
}
330
B08
100
DictionaryVariables
280
     0
  1
1:1
  0
DICTIONARYVAR
  5
B0A
102
{ACAD_REACTORS
330
B08
102
}
330
B08
100
DictionaryVariables
280
     0
  1
STANDARD
  0
DICTIONARYVAR
  5
B09
102
{ACAD_REACTORS
330
B08
102
}
330
B08
100
DictionaryVariables
280
     0
  1
STANDARD
  0
DICTIONARYVAR
  5
B0B
102
{ACAD_REACTORS
330
B08
102
}
330
B08
100
DictionaryVariables
280
     0
  1
Imperial24
  0
DICTIONARYVAR
  5
B0C
102
{ACAD_REACTORS
330
B08
102
}
330
B08
100
DictionaryVariables
280
     0
  1
Imperial24
  0
DICTIONARYVAR
  5
B10
102
{ACAD_REACTORS
330
B08
102
}
330
B08
100
DictionaryVariables
280
     0
  1
1
  0
DICTIONARYVAR
  5
B11
102
{ACAD_REACTORS
330
B08
102
}
330
B08
100
DictionaryVariables
280
     0
  1
15
  0
DICTIONARYVAR
  5
B0F
102
{ACAD_REACTORS
330
B08
102
}
330
B08
100
DictionaryVariables
280
     0
  1
0
  0
DICTIONARYVAR
  5
B0D
102
{ACAD_REACTORS
330
B08
102
}
330
B08
100
DictionaryVariables
280
     0
  1
0
  0
DICTIONARY
  5
757
330
756
100
AcDbDictionary
280
     1
281
     1
  3
BUMPTILE
360
759
  3
DIFFUSETILE
360
758
  3
OPACITYTILE
360
75C
  3
REFLECTIONTILE
360
75B
  3
REFRACTIONTILE
360
75D
  3
SPECULARTILE
360
75A
  0
DICTIONARY
  5
74F
330
74E
100
AcDbDictionary
280
     1
281
     1
  3
BUMPTILE
360
751
  3
DIFFUSETILE
360
750
  3
OPACITYTILE
360
754
  3
REFLECTIONTILE
360
753
  3
REFRACTIONTILE
360
755
  3
SPECULARTILE
360
752
  0
DICTIONARY
  5
75F
330
75E
100
AcDbDictionary
280
     1
281
     1
  3
BUMPTILE
360
761
  3
DIFFUSETILE
360
760
  3
OPACITYTILE
360
764
  3
REFLECTIONTILE
360
763
  3
REFRACTIONTILE
360
765
  3
SPECULARTILE
360
762
  0
DICTIONARY
  5
C52
330
771
100
AcDbDictionary
280
     1
281
     1
  3
ACAD_ROUNDTRIP_2008_TABLESTYLE_CELLSTYLEMAP
360
C53
  0
XRECORD
  5
759
102
{ACAD_REACTORS
330
757
102
}
330
757
100
AcDbXrecord
280
     1
270
     1
271
     1
  0
XRECORD
  5
758
102
{ACAD_REACTORS
330
757
102
}
330
757
100
AcDbXrecord
280
     1
270
     1
271
     1
  0
XRECORD
  5
75C
102
{ACAD_REACTORS
330
757
102
}
330
757
100
AcDbXrecord
280
     1
270
     1
271
     1
  0
XRECORD
  5
75B
102
{ACAD_REACTORS
330
757
102
}
330
757
100
AcDbXrecord
280
     1
270
     1
271
     1
  0
XRECORD
  5
75D
102
{ACAD_REACTORS
330
757
102
}
330
757
100
AcDbXrecord
280
     1
270
     1
271
     1
  0
XRECORD
  5
75A
102
{ACAD_REACTORS
330
757
102
}
330
757
100
AcDbXrecord
280
     1
270
     1
271
     1
  0
XRECORD
  5
751
102
{ACAD_REACTORS
330
74F
102
}
330
74F
100
AcDbXrecord
280
     1
270
     1
271
     1
  0
XRECORD
  5
750
102
{ACAD_REACTORS
330
74F
102
}
330
74F
100
AcDbXrecord
280
     1
270
     1
271
     1
  0
XRECORD
  5
754
102
{ACAD_REACTORS
330
74F
102
}
330
74F
100
AcDbXrecord
280
     1
270
     1
271
     1
  0
XRECORD
  5
753
102
{ACAD_REACTORS
330
74F
102
}
330
74F
100
AcDbXrecord
280
     1
270
     1
271
     1
  0
XRECORD
  5
755
102
{ACAD_REACTORS
330
74F
102
}
330
74F
100
AcDbXrecord
280
     1
270
     1
271
     1
  0
XRECORD
  5
752
102
{ACAD_REACTORS
330
74F
102
}
330
74F
100
AcDbXrecord
280
     1
270
     1
271
     1
  0
XRECORD
  5
761
102
{ACAD_REACTORS
330
75F
102
}
330
75F
100
AcDbXrecord
280
     1
270
     1
271
     1
  0
XRECORD
  5
760
102
{ACAD_REACTORS
330
75F
102
}
330
75F
100
AcDbXrecord
280
     1
270
     1
271
     1
  0
XRECORD
  5
764
102
{ACAD_REACTORS
330
75F
102
}
330
75F
100
AcDbXrecord
280
     1
270
     1
271
     1
  0
XRECORD
  5
763
102
{ACAD_REACTORS
330
75F
102
}
330
75F
100
AcDbXrecord
280
     1
270
     1
271
     1
  0
XRECORD
  5
765
102
{ACAD_REACTORS
330
75F
102
}
330
75F
100
AcDbXrecord
280
     1
270
     1
271
     1
  0
XRECORD
  5
762
102
{ACAD_REACTORS
330
75F
102
}
330
75F
100
AcDbXrecord
280
     1
270
     1
271
     1
  0
CELLSTYLEMAP
  5
C53
102
{ACAD_REACTORS
330
C52
102
}
330
C52
100
AcDbCellStyleMap
 90
        3
300
CELLSTYLE
  1
TABLEFORMAT_BEGIN
 90
        5
170
     1
 91
        0
 92
    32768
 62
   257
 93
        1
300
CONTENTFORMAT
  1
CONTENTFORMAT_BEGIN
 90
        0
 91
        0
 92
      512
 93
        0
300

 40
0.0
140
1.0
 94
        5
 62
     0
340
11
144
0.25
309
CONTENTFORMAT_END
171
     0
 94
        0
309
TABLEFORMAT_END
  1
CELLSTYLE_BEGIN
 90
        1
 91
        1
300
_TITLE
309
CELLSTYLE_END
300
CELLSTYLE
  1
TABLEFORMAT_BEGIN
 90
        5
170
     1
 91
        0
 92
        0
 62
   257
 93
        1
300
CONTENTFORMAT
  1
CONTENTFORMAT_BEGIN
 90
        0
 91
        0
 92
      512
 93
        0
300

 40
0.0
140
1.0
 94
        5
 62
     0
340
11
144
0.18
309
CONTENTFORMAT_END
171
     0
 94
        0
309
TABLEFORMAT_END
  1
CELLSTYLE_BEGIN
 90
        2
 91
        1
300
_HEADER
309
CELLSTYLE_END
300
CELLSTYLE
  1
TABLEFORMAT_BEGIN
 90
        5
170
     1
 91
        0
 92
        0
 62
   257
 93
        1
300
CONTENTFORMAT
  1
CONTENTFORMAT_BEGIN
 90
        0
 91
        0
 92
      512
 93
        0
300

 40
0.0
140
1.0
 94
        2
 62
     0
340
11
144
0.18
309
CONTENTFORMAT_END
171
     0
 94
        0
309
TABLEFORMAT_END
  1
CELLSTYLE_BEGIN
 90
        3
 91
        2
300
_DATA
309
CELLSTYLE_END
  0
ENDSEC
  0
SECTION
  2
ACDSDATA
 70
     2
 71
     2
  0
ACDSSCHEMA
 90
        0
  1
AcDb_Thumbnail_Schema
  2
AcDbDs::ID
280
    10
 91
        8
  2
Thumbnail_Data
280
    15
 91
        0
101
ACDSRECORD
 95
        0
 90
        1
  2
AcDbDs::TreatedAsObjectData
280
     1
291
     1
101
ACDSRECORD
 95
        0
 90
        2
  2
AcDbDs::Legacy
280
     1
291
     1
101
ACDSRECORD
  1
AcDbDs::ID
 90
        3
  2
AcDs:Indexable
280
     1
291
     1
101
ACDSRECORD
  1
AcDbDs::ID
 90
        4
  2
AcDbDs::HandleAttribute
280
     7
282
     1
  0
ACDSSCHEMA
 90
        1
  1
AcDbDs::TreatedAsObjectDataSchema
  2
AcDbDs::TreatedAsObjectData
280
     1
 91
        0
  0
ACDSSCHEMA
 90
        2
  1
AcDbDs::LegacySchema
  2
AcDbDs::Legacy
280
     1
 91
        0
  0
ACDSSCHEMA
 90
        3
  1
AcDbDs::IndexedPropertySchema
  2
AcDs:Indexable
280
     1
 91
        0
  0
ACDSSCHEMA
 90
        4
  1
AcDbDs::HandleAttributeSchema
  2
AcDbDs::HandleAttribute
280
     7
 91
        1
284
     1
  0
ACDSRECORD
 90
        0
  2
AcDbDs::ID
280
    10
320
78B
  2
Thumbnail_Data
280
    15
 94
     5419
310
89504E470D0A1A0A0000000D49484452000001000000010008030000006BAC585400000300504C5445FFFFFF000000C8C8C80000000000000000000000000000000000000000000000000000330000660000990000CC0000FF0033000033330033660033990033CC0033FF0066000066330066660066990066CC0066FF0099
310
000099330099660099990099CC0099FF00CC0000CC3300CC6600CC9900CCCC00CCFF00FF0000FF3300FF6600FF9900FFCC00FFFF3300003300333300663300993300CC3300FF3333003333333333663333993333CC3333FF3366003366333366663366993366CC3366FF3399003399333399663399993399CC3399FF33CC00
310
33CC3333CC6633CC9933CCCC33CCFF33FF0033FF3333FF6633FF9933FFCC33FFFF6600006600336600666600996600CC6600FF6633006633336633666633996633CC6633FF6666006666336666666666996666CC6666FF6699006699336699666699996699CC6699FF66CC0066CC3366CC6666CC9966CCCC66CCFF66FF0066
310
FF3366FF6666FF9966FFCC66FFFF9900009900339900669900999900CC9900FF9933009933339933669933999933CC9933FF9966009966339966669966999966CC9966FF9999009999339999669999999999CC9999FF99CC0099CC3399CC6699CC9999CCCC99CCFF99FF0099FF3399FF6699FF9999FFCC99FFFFCC0000CC00
310
33CC0066CC0099CC00CCCC00FFCC3300CC3333CC3366CC3399CC33CCCC33FFCC6600CC6633CC6666CC6699CC66CCCC66FFCC9900CC9933CC9966CC9999CC99CCCC99FFCCCC00CCCC33CCCC66CCCC99CCCCCCCCCCFFCCFF00CCFF33CCFF66CCFF99CCFFCCCCFFFFFF0000FF0033FF0066FF0099FF00CCFF00FFFF3300FF3333
310
FF3366FF3399FF33CCFF33FFFF6600FF6633FF6666FF6699FF66CCFF66FFFF9900FF9933FF9966FF9999FF99CCFF99FFFFCC00FFCC33FFCC66FFCC99FFCCCCFFCCFFFFFF00FFFF33FFFF66FFFF99FFFFCCFFFFFF0000000D0D0D1A1A1A2828283535354343435050505D5D5D6B6B6B787878868686939393A1A1A1AEAEAEBB
310
BBBBC9C9C9D6D6D6E4E4E4F1F1F1FFFFFF000000000000000000000000000000000000000000000000000000000000B0E2D235000011984944415478DAED9D5B76DCB80E45F15DF31FE1198187706F279DB824E23C40494EB2D2FEE9B6A32A115B2089A758F8CB7F0AF557FFFC07E057027857C4BF07402FF52F43F138804F
310
8942014F973D4DE46900DF65D978B4F8FCE41F0F605F842F98150F03B836B1BF625D7810C0FBBAB621C4E7DC413DC8E02900DF878CB7D93F12E2E7C53F35E02906CF00F821F369F90B85C069E7A8C2731BC213007E3EBDB77D20DFD516F3E0F3AB9E40703F809F83C4FB334C119CAFC5A7323D83E06600EFDA5B3D80527744
310
6B0C1CFEE5E6C5E0560047EDA500F82D511EC0CD6A701F80B3A63742180900654541DCEC3700C0D5BCB76450C19F8E1F4502F11701580703670C23941F6A82FC2600B478CC98F52BA303700B82EB00DA41802A329107892385BA1FC1550064398B3C3A240A1060FA8500D8CD91398408E4B7002E22B80400C9DF111040EA0A
310
633690870164F60C54E81356FE4405AE28C13E00CCE52704B4FCD880FE150052831E9A008405305181DA97038FCA5F7004E0E4477A5F7C1D00792F0DA0B3F75B0B784E604F949D4FA176E46F2D82CE5B3ECB8FCD7B3F0600B507A02200C76B6700B684C1BDF27700EA2DB2D9A5C43A226029959B09CC01CCE55F008003F8F9
310
FB2680F152380560BF5FE973A3038C079F35B8F884AE01C0EC8A460C0100CD6518AB404D25C2ADF2F700EA2C5917303BFCCB792AEC3F843B01A0D9DA3D80FE4133003506808D69B201E07B3591DFC7D09A39FAB11305406F2AA137A38E9FBF1D804ED3AEE900B2A6552BF67A0334572C3E741F69FBCC4ADEAD012EA503AE00
310
FD76B76CFBEDDA887A35D133399A1F3BEFED00FC16DC4BD90538A5BDB368C322DD0DC31D4E81A8D6A391830638DFB7B9BE64AAFDD24CB2BCAC2204808C005DEBD8F249AAC3CCD7205AAFEED4007CE6FA712B0016F7B902E0B304167701F8376C33550137721EF5A0007205F8F1D4EE0080B7A537A4BF2E5F609EBF05503300
310
9FDF87CC6ACC4C6B8C6E2FFD9C9640B6968EE46701D70B0092F505CC886511411A136B08380058CD415C0680C5FC920C1AFF473CBDEC8FC45AE2A1A73B019C531726C87B72649DAC95513100C890900570A21013789497AC6CA537770BA098CDE042C8A811016461569422D0DAB10C40DAC9926F17FFFFDB4B007012468176
310
0F60D9F188145701B466A4D400974BB80FC039F4F904003E0D05009DC78A925C6096F6408A9A00A0E63DBBB8F5A92E02E8CB73BAE5F6EB002C3D6FCB83700F30070011E82BDEF3339762FBA3D20A1012DC00802DF25F0820195210274554E772BADB8BF601D954B8330E2200C498B81700E42F10BEA13391848710688008FF
310
E8E838660060F25DCE3B36DEAF087D881DD484BF4C7A00B702D820C0ADA62C420417FEBB1380AC634542403587B64113B1C86DCA5F499F4206A090053D5C58639570B51E111411B4FF6413640300A6945BDD3507B0E4051801A1003C7C5E5141FA75006506D72D70D559F0A0A55122FEA2E3CEFB005C757F98A968B27DABE7
310
D26A0458D65CE9589047C736802D02B4E0A184CEF7002A93FF26007E526042A00F9491294F6A6AD2356626C63E800A02BEABC580EA2A42DA5D3100E0EBCD760104FB62BA4F01AD4022901BD40829276228C70040210A5C1302CC7268773C195BE6CF3B6CAEF00022E7280BF95A00AA2EC2C7DE6BAE009D7594B6751A797DC8
310
3E58BA520089B7F0D5004A0C7507408DE4CF6B8A2D80AC232189DA906CA2DA425B00E57CA5118055DE1C409EEBB55983C4989B84CCD6EFA94D002EF5EAF35C6EC47115C958FEB088006300C262DB06C0EA046F00E032F843006452DE00A0A9137C5D02D0A7506600E0A63D4DFFAFEC6DE6B04F93C80092034080CB78AFAAC3
310
155B9A590523B7583E5D1956253380C7A34300EE752F83F485F40A0302518E381C57F56FF750004CB0576EC6341C6A00348B0C98593DCA9B2C2251004936B5BC35C255A08F0A75FA6BD2EB0A8018799BF56B2A2AA24234618FEA94401714390928D20A93C587222000E2660357E1AA9322AC8348D757A8D577F06ACEB5E6A9
310
865555E54A5C95BB0A11F1D30526C202C140FEA6EAED04207EE5A5B172E53B434566886CF632FF036000016000307FFC30010D930E5A01101388DAE09199D829017A00988A0EE7DAB83DBEDDF6E8DE18DD22A8EA6700104EFB66A4DB007E740411002FD84643666248028DD4BC5442B47614D76D355B9AA638622E57EB22D1
310
90D1BADF3A0228309FE1788F978C4FB55BD4516508A806C0FB7B48D92CF38538B6A6FB08C0F633B8146D63A4F07A18E60E8BB850A48F6FD2A5E10314C85E9A4F29E7F90F01F40BC9E8F98AF12F05961579693BA65157C0FFAA6EF1EF2705F98E7C5891DB1901A89A9807477175E6ABAAEDAF6FF47DC3EC8DC47A5F046B4F76
310
F9B048350507C0163C9F2D10C16C5E62FB0EC0D8B913D86BA6F7AC03AC7596E2DA30FBA5EDBEEC022562561B7729239402D0AACB68015453A07AC1717E0DEA08020FF030DBFF68391CA031FFE78E41AD767F0760CAC0AF9F645EFC14B90120B262DB63EADC0102A0F21B429AE42509D4A9F8DE1903DD3DF2075206002D8AB7
310
85EA62AB2EADD04DB241CB9F05A013F98F00D0674560B4C90F8338316F005E4757423A557ED7E1ED346B5C0801004C8C2A6F1560316F5A578AB9783B965EF177112D000A26E58CAD95413AB29DBB45C96F2CBFEAE5AC164085336CE41CF0884F2FFFD68247F39506409B1BC6708339F8C1FD5E20B2A3CBF37FC9546FDA6DC4
310
43C30100A4D6A5AF5610B5E15D48E1DD6AB7FD07728EF0E4C011404CA04CB52F7BB5B423D026FA575152938869C502402505470454DCD0991747FDEF8CB7B14948E6CDD11A38E709B22F698B3110444E150129FF4614DC958864002C8164422E429A300D7C02C815137B0568018C086476985717A84C481060DF9B0004C0C6
310
240857E6884045C562C9D882B33D520035801CD8A4D14F68E78CE50F00ECAC83C13A3507102C786E07D4F23300231DA08F442D5981F8D18A77517E0AE03A01B12260EFA7BDD945F93980E246A5FDFBA0DEF5DBCFC7C747EC6ADF2CBF0020DEF99F4F8200C277E92502EB9FEFCBFF0920ECAFCA080C62171FCBFF4C1CBBCBF2
310
FF1B1944DA5F55934910F90EFF97BB3E3EAA27E0969BEC2A29BF0650FB2B56F8F34DFEAA7F087C8C2DFB74462AF90D80BA2A7F5900FFC8FF8DC0C7B3A859F1DBD3005E875F5FBD02FC430086C0655554D552BF4C03FE11FBFB201A009ADDD70010965B1D8A78B8A75AC70B4F5FF836057E470DC8175864CBF3A252FF6E0244
310
FE233CE91AE827F1E30B860006E6F0A56DB0C83678711BC0D55DE0A2FCA121F471FCEF3D86900B844500C6F263CB14FE267A6C0957160C404C403843FBEEE0DC19CA57B0D41BA6645200BF9F3BFC8C3B785F40045940E49A0511799EA385200E89E5F2D7568C2B0EA0D53024869D90D8A5A06810CFD14981A0E4217CCB5840
310
200490DF24CAD3BB0C972A869984857701CCE5C72080ED03A3A5922A2413BBBB100E728332F584505383F4286807B05E29062A6052631B0A705F7A78AD217155094108A546C951640976A5983A7DA19FBF490FEFA5C72980A0406228BF2A65A84CFF45DEF3F43D7599405022939726116C4DCD0B7A0CBC367EE0635456DF91
310
02405AA5A000D54B353C3173E93C7BF21A29243A9095C9854BB15191924562B6AE332F47CCB2297300995FA706B68CA42F912C4B6016B354B3800010F27B97856A402B3FAD15E42930FDC20EEB433604520069014328FF09C0EBAD48D61180D6B16C52F50048B97C6EE4382A7DA9E079E9B7040C78A9AAAB1F7802B0D93051
310
D2E95DB5F0B8D8AF00828689C180E8D27867CB8CD716223F96AE39FA9159BCFF62CBCCEC56D426E91FE7110028800ACCE7E998209BA6AEB5CD95587ABAB900A2FB1D01B21ACF477518482D9DA3FBC293A58A9976C5DEB35C83C6C9AD711D8DF43380F13CD3E2B7075F2C5EFC12ED64EA12D845C315EAA4093BB945293FEB7C
310
EE1FEEAA38EF5FF1DA6C9E0EA4EA010C7B884D10901B03DD3AD1885B7485BE22FFA17D9EE761827BE9448E7A6D72DB4E5EEDE176D351A9E06CAD002A7537E4BDD2D7464B00A6186EF1A4B250258D73BC6F7F194A35F7BDFFD83B0625DEA3447C0A381FE965DCE8D376288F5C5AC337649EB7312C16CB26B3227E59957106CC
310
F927B58A8DD98BA4BAA7D046735E246A785CF110AA40EB12E5D355496D8FE915F16C313AA6016727D419FFAD732F2A989420F45D62C119BC3EFDB398716AA6B41F388A82E1CBD4BC75503D80CDD7E99596BFD912C00140F58A47E9D8C038AAAB2F54D4EFCF2DDDE549B73C0FC0BFABF186172A264AA0F7447EAADEEA27974E
310
9AB404641428949F00B02681BBDFD9BB5F0C8F371159284947BBAA9E7CA9EAC1028D968016003880EA93C08DEEF31A311B20B68F9F03B06F961EBC5899599E61810CAF92F3658881F11300508D437E1CDCF44E4BC2742A6064AE2FD270004B6A80CA37199F0FDE0725711E805E9D79A1943EA28FF9F712807C2A34256C6A83
310
64BE5E11C0E4F5FAAA465CB83D930286DE7DF4F1089F8BECBEC7964DC7678CF87CDB10007300AE010816C44D00A274610300FFE532808B87AC84C7EC446BB1F718FDA1435B04AE1CB373DF414B2AA8C7BE477D705808B27DD0D2D71EB515959A27A54F3180DFECB035134FC8092025B00DE0EF396EEFE103172B8B9C43B83E
310
9CC0508C0980278EDC2C11F19326773684ED23377D175D2AFFFCD0D51E584200DAE2A57FBB034052AFBDD441952C678AABC105817D00D1C9D37B072FBBE447A3F829816411D83F791AC6F074F2B739344E00A2665A12188921D241C1E1EB567E51EAC65B24CA7A0FDA3D9948B10FC07A8551001FD151E4FA1E25A7CA0500DA
310
3A12F98F11009D13AE4ABC3B15438B4CBC0C002A4C5258639114520519A78C402E854909230130925F1EB6AE231926D8AB2B82AD69380690CBEFCF44E311809A13283D07660044AC142245E31347DE1B345D2A9C805E04EC894332FEB191A1E12133EFD50DBFF8C7887E9EE1E2448800D076D23E3192B6EF809B14C2EE71A5
310
CF673BFB490041459D04501AC020DCE81F4A14214B8280BC1B84F7AB440D5C699F57166A3DAF2859A453D6122900DABCCBA49D70D2BD411240562F2508B4C52EBA0A30DBCBC29902471DF83200BD535341A31B9D165300D9A4484F112E77362307F0426AEF8CE67B5C0463735081FC0EC05A38055323D0C47E2E03A09527A5
310
CF800DE4B700D6AAAAAC65ABD9946700C8361FB4898DE4F7004E3D9541214A17FFD5FB7B08207891FAB12B28903F00F0DE6418D42151F7745EF04100043D020F01C80AD1FA14885EDA7CBC17DE2B5C3430913F01F0B3B678287F9704C9FC46DA68311A4278907465E5A5982B80AB5A40E8FE630F40267F06E0DB55D8520044
310
9BBBDC3127D51F07E738162DB92CABC59D0090CDDD970120962CBBACA25264F06C957660751414885EA1B77C77DD0DC05EE2E2E7E061251108EFC21CD92CA87BA74099E6C12E76F452C7B29739608ECD9DF7FB5D26906B4AF140E8627E11136A8D7A05952334CEE5ACD17B011CBC2BD51AD3936155C04CD5A941ED8AD5665B
310
C0104005D98A2085020180B450C9F076DB123E90697071617885280C914BC308C0CE307701648E431F1B68CD79DA27CC6B8470ABFC53005B04D8FB11AAF84B52F701602AD0EC7AFBFDBACFC7648648B1CC48FEAA6701541443230082EABE63E94458FCB62FFF0E800901B08641E32289D0EABDF26F018802C90D8041AE4438
310
8AF7CABF0720CA25789FAFF731F601604F949D4F15B0A102C48A3641DE5CFEAAAF03903656B80E1E72CED70E806D39363F98B66498E28E2100DCAAFED7001430540176A579576802605B882B00C29E042B3F2960FC1AF9AF0110A7D724E14493BE8E01E092089700909B238A4EB80A9E261D7CBBF8D701F40388CA3CEDB34D
310
00E0F2F02F03E8FBEC3D80F0601759E8831B067F030072808D8E4F06A5DC0E006E19FA2D00D6C1B862F7AC4DA32DF8B853FCFB002C46ADECA840B69C35E97E6141FF6A006709444741DAD75B24CE893BC77C2780C39301F7F8E399D40100EE1DF1BD00DE65E8DB187C5EAF0580071EFE43004EAF2B3AC77D6713E950EDF180
310
F8CF00784F149E82E0D3B5E4ADD8E111F19F02F063A69E521D1B6BC9CF4437F0D0401F0250EFEF5FDC1ABEACBBFE2300685778F2F17A72888F02C80A3A2C813F1DC0A862E3BCFC3D2CFFE3000A4385A635DF7F2A00B13004FD725F309AAF07F03B88FD9B00F81D7EFE0370F960F73FFDE77F1E501F47B0DCFA820000000049
310
454E44AE4260821BFABF59277F93F833237CF1FE7B1ACA1FBFF19E8C903AAE02F80F519F63E8FF26E5F3EC227B4EFCFF9F0F7DFE01B3D3911FB6E4AD3C0000000049454E44AE4260820000000049454E44AE426082
  0
ENDSEC
  0
EOF
